Song name
# A B C D E F G H I J K L M N O P Q R S T U V W X Y Z

Lil Wayne - Knockout tab

this is a really easy song and as soon as i heard it i knew that i had to tab it out. i 
it in about 20 minutes so there are gonna be flaws, but i think it sounds good. enjoy.

                         PLEASE RATE AND COMMENT
Artists: Lil Wayne and Nicki Minaj
Song: Knockout
Album: Rebirth
Tuning: Standard

 RIFF 1 (x2)
|-------------------------------------------------------------------------|
|-------------------------------------------------------------------------|
|-11-11-11-11-9-9-9-9-11-11-11-11-7-7-7-7-11-11-11-11-9-9-9-9-14-14-14-14-|
|-------------------------------------------------------------------------|
|-------------------------------------------------------------------------|
|-------------------------------------------------------------------------|

|---------------------------------------------------------------------------|
|---------------------------------------------------------------------------|
|-7-7-7-7-11-11-11-11-9-9-9-9-11-11-11-11-7-7-7-7-9-9-9-9-14-14-14-14-99-77-|
|---------------------------------------------------------------------------|
|---------------------------------------------------------------------------|
|---------------------------------------------------------------------------|

 RIFF 2
|---------------------------|
|---------------------------|
|-5-5-5-5-3-3-3-3-5-5-5-5-5-|
|-5-5-5-5-3-3-3-3-5-5-5-5-5-|
|-3-3-3-3-1-1-1-1-3-3-3-3-3-|
|---------------------------|

 RIFF 1 (x4)
|-------------------------------------------------------------------------|
|-------------------------------------------------------------------------|
|-11-11-11-11-9-9-9-9-11-11-11-11-7-7-7-7-11-11-11-11-9-9-9-9-14-14-14-14-|
|-------------------------------------------------------------------------|
|-------------------------------------------------------------------------|
|-------------------------------------------------------------------------|

|---------------------------------------------------------------------------|
|---------------------------------------------------------------------------|
|-7-7-7-7-11-11-11-11-9-9-9-9-11-11-11-11-7-7-7-7-9-9-9-9-14-14-14-14-99-77-|
|---------------------------------------------------------------------------|
|---------------------------------------------------------------------------|
|---------------------------------------------------------------------------|

 RIFF 2
|---------------------------|
|---------------------------|
|-5-5-5-5-3-3-3-3-5-5-5-5-5-|
|-5-5-5-5-3-3-3-3-5-5-5-5-5-|
|-3-3-3-3-1-1-1-1-3-3-3-3-3-|
|---------------------------|

 RIFF 3 (x3)
|----------------------|
|----------------------|
|----------------------|   NOTE: the (x14) means u play it 14 times,it
|-10-(x14)-14-14-14-14-|         isnt a note
|----------------------|
|----------------------|

 RIFF 1 (x4)
|-------------------------------------------------------------------------|
|-------------------------------------------------------------------------|
|-11-11-11-11-9-9-9-9-11-11-11-11-7-7-7-7-11-11-11-11-9-9-9-9-14-14-14-14-|
|-------------------------------------------------------------------------|
|-------------------------------------------------------------------------|
|-------------------------------------------------------------------------|

|---------------------------------------------------------------------------|
|---------------------------------------------------------------------------|
|-7-7-7-7-11-11-11-11-9-9-9-9-11-11-11-11-7-7-7-7-9-9-9-9-14-14-14-14-99-77-|
|---------------------------------------------------------------------------|
|---------------------------------------------------------------------------|
|---------------------------------------------------------------------------|

 RIFF 3 (x14)
|----------------------|
|----------------------|
|----------------------|
|-10-(x14)-14-14-14-14-|
|----------------------|
|----------------------|

END.
Tap to rate this tab
 
# A B C D E F G H I J K L M N O P Q R S T U V W X Y Z