Song name
# A B C D E F G H I J K L M N O P Q R S T U V W X Y Z

Lil Wayne - Skys The Limit tab

BY Cameron Kleypas

 


  * = let it ring
                                               
e|---0-0-0-0-0-0-0-0|0-0-0-0-0-0-0-0|0-0-0-0-0-0-0-0|0-0-0-0-0-0-0-0|0-0-0-0|
B|---1-1-1-1-1-1-1-1|1-1-1-1-1-1-1-1|1-1-1-1-1-1-1-1|1-1-1-1-1-1-1-1|1-1-1-1|
G|---2-2-2-2-2-2-2-2|2-2-2-2-2-2-2-2|2-2-2-2-2-2-2-2|2-2-2-2-2-2-2-2|2-2-2-2|
D|------------------|3-3-3-3-3-3-3-3|---------------|---------------|3*-----|
A|------------------|---------------|---------------|0*-------------|-------|
E|------------------|---------------|---------------|---------------|-------|



e|---0-0-0-0|0-0-0-0-0-0-0-0|
B|---1-1-1-1|1-1-1-1-1-1-1-1|
G|---2-2-2-2|2-2-2-2-2-2-2-2|
D|----------|0*-------------|
A|----------|---------------|
E|----------|---------------|



This is all I have so far, but I'm just submitting it in case someone else has 
more time to finish it.                                                      
Tap to rate this tab
 
# A B C D E F G H I J K L M N O P Q R S T U V W X Y Z