Lil Wayne - Tattoo Forever tab

-------------------------------------------------------------------------------
			     Tattoo Forever - Lil Wayne, Detail, T-Pain, Travis McCoy 
-------------------------------------------------------------------------------
Tabbed by: Nathan H
Email: Nathanh2112@yahoo.ca

Tuning: Standard

e|---x-x-x-x------4-4-4-4------4-4-4-4------5-5-5-5--------------------------------------------|
B|---x-x-x-x------4-4-4-4------5-5-5-5------5-5-5-5--------------------------------------------|
G|---1-1-1-1------5-5-5-5------6-6-6-6------6-6-6-6--------------------------------------------|
D|---2-2-2-2------6-6-6-6------6-6-6-6------7-7-7-7--------------------------------------------|
A|---2-2-2-2------6-6-6-6------4-4-4-4------7-7-7-7--------------------------------------------|
E|---0-0-0-0------4-4-4-4------4-4-4-4------5-5-5-5--------------------------------------------|
-
Tap to rate this tab
 
# A B C D E F G H I J K L M N O P Q R S T U V W X Y Z