Lil Wayne - Knockout tab

Artists: Lil Wayne and Nicki Minaj
Song: Knockout
Album: Rebirth
Tuning: Standard (E-A-D-G-B-e)

 RIFF 1 (x2)
|-------------------------------------------------------------------------|
|-------------------------------------------------------------------------|
|-11-11-11-11-9-9-9-9-11-11-11-11-7-7-7-7-11-11-11-11-9-9-9-9-14-14-14-14-|
|-------------------------------------------------------------------------|
|-------------------------------------------------------------------------|
|-------------------------------------------------------------------------|

|---------------------------------------------------------------------------|
|---------------------------------------------------------------------------|
|-7-7-7-7-11-11-11-11-9-9-9-9-11-11-11-11-7-7-7-7-9-9-9-9-14-14-14-14-9-9-7-|
|---------------------------------------------------------------------------|
|---------------------------------------------------------------------------|
|---------------------------------------------------------------------------|

 RIFF 2
|---------------------------|
|---------------------------|
|-7-7-7-7-2-2-2-2-4-4-4-4-2-|
|-7-7-7-7-2-2-2-2-4-4-4-4-2-|
|-5-5-5-5-0-0-0-0-2-2-2-2-0-|
|---------------------------|

 RIFF 1 (x4)
|-------------------------------------------------------------------------|
|-------------------------------------------------------------------------|
|-11-11-11-11-9-9-9-9-11-11-11-11-7-7-7-7-11-11-11-11-9-9-9-9-14-14-14-14-|
|-------------------------------------------------------------------------|
|-------------------------------------------------------------------------|
|-------------------------------------------------------------------------|

|---------------------------------------------------------------------------|
|---------------------------------------------------------------------------|
|-7-7-7-7-11-11-11-11-9-9-9-9-11-11-11-11-7-7-7-7-9-9-9-9-14-14-14-14-9-9-7-|
|---------------------------------------------------------------------------|
|---------------------------------------------------------------------------|
|---------------------------------------------------------------------------|

 RIFF 2
|---------------------------|
|---------------------------|
|-7-7-7-7-2-2-2-2-4-4-4-4-2-|
|-7-7-7-7-2-2-2-2-4-4-4-4-2-|
|-5-5-5-5-0-0-0-0-2-2-2-2-0-|
|---------------------------|

 RIFF 3 (x3)
|---------------------|
|---------------------|
|-9-------12-12-12-12-|
|-x-(x14)--x--x--x--x-|
|-7-------10-10-10-10-|
|---------------------|

|--------|
|--------|
|-12^\\\-| (Bend then slide down the neck)
|--x-\\\-|
|-10^\\\-|
|--------|

 RIFF 1 (x4)
|-------------------------------------------------------------------------|
|-------------------------------------------------------------------------|
|-11-11-11-11-9-9-9-9-11-11-11-11-7-7-7-7-11-11-11-11-9-9-9-9-14-14-14-14-|
|-------------------------------------------------------------------------|
|-------------------------------------------------------------------------|
|-------------------------------------------------------------------------|

|---------------------------------------------------------------------------|
|---------------------------------------------------------------------------|
|-7-7-7-7-11-11-11-11-9-9-9-9-11-11-11-11-7-7-7-7-9-9-9-9-14-14-14-14-9-9-7-|
|---------------------------------------------------------------------------|
|---------------------------------------------------------------------------|
|---------------------------------------------------------------------------|

 RIFF 3 (x14)
|---------------------|
|---------------------|
|-9-------12-12-12-12-|
|-x-(x14)--x--x--x--x-|
|-7-------10-10-10-10-|
|---------------------|

And there will be another one of these little numbers somewhere in the Riff 3
|--------|
|--------|
|-12^\\\-| (Bend then slide down the neck)
|--x-\\\-|
|-10^\\\-|
|--------|
Tap to rate this tab
 
# A B C D E F G H I J K L M N O P Q R S T U V W X Y Z