Song name
# A B C D E F G H I J K L M N O P Q R S T U V W X Y Z

Lil Wayne - Talk 2 Me tab

e]--------------------------------[
B]----4--3--------4--3------------[
G]---------------------3-5-3-1-0--[
D]--------1-----------------------[
A]-3------------1-----------------[
E]--------------------------------[

e]---------------------------[
B]----4--3------------4h6----[
G]-----------1-5--3-8--------[
D]--------1------------------[
A]-3-------------------------[
E]---------------------------[

gallops

e]
B]-4-4-4 x 4    8-8-8 x 4
G]                         7-7-7 x 4   5-5-5 x 4
D]
A]                    (12 strums x 4 = 48 strums total) 
E]

Then just repeat those parts when needed, Enjoy
Tap to rate this tab
 
# A B C D E F G H I J K L M N O P Q R S T U V W X Y Z