Song name
# A B C D E F G H I J K L M N O P Q R S T U V W X Y Z

Lil Wayne - Mirror tab

---------------------------------------------------|
---------------------------------------------------|
------------0----2--0------------------------------|
------2-4--------4------4--2--0--0--4--2-----------|
---------------------------------2-----3-----------|
------------0--------------------------------------|


---------------------------------------------------|
------------------0------------------0-------------|
-----------0-----------2-------0--2-------2--------|
------2--4-------------0--2--4------------0--2-----|
----2--------------------------------2-------3-----|
-----------0------3--------------------------------|



Em D Bm C

capo on 2nd fret
Tap to rate this tab
 
# A B C D E F G H I J K L M N O P Q R S T U V W X Y Z