Song name
# A B C D E F G H I J K L M N O P Q R S T U V W X Y Z

Lil Wayne - Mirror tab

The intro is like the beginning of the chrose

---------------------------------------------------|
---------------------------------------------------|
-----0-----------------0-4--------4----------------|
-2-4----4--0-4-2---2-4-----4--4-5---0-2------------|
---------------------------------------------------|
---------------------------------------------------|

---------------------------------------------------|
---------------------------------------------------|
--------------------------------0--2-0-0-----------|
-2-2-2---2-4--5-7-10-9-7-5-2--2----------4--4-4-0-2|
-------2-------------------------------------------|
---------------------------------------------------|

 Made by Gal12
Tap to rate this tab
 
# A B C D E F G H I J K L M N O P Q R S T U V W X Y Z