Song name
# A B C D E F G H I J K L M N O P Q R S T U V W X Y Z

Lil Wayne - Way Of Life tab

E)------------------------------------------
B)------------------------------------------
G)------------------------------------------
D)------------------------------------------
A)------------1----3-3-1h3-3/5-5-3h5--------
E)--3-3-1h3--3--3---------------------------

E)------------------------------------------
B)------------------------------------------
G)------------------------------------------
D)--5-3-------------------------------------
A)-----5-3----------------------------------
E)--------1-3-3-1h3-------------------------

  
  Jus keep repeatin in it through the whole song. an then listen to
da song an ull get the rhythm
Tap to rate this tab
# A B C D E F G H I J K L M N O P Q R S T U V W X Y Z