Song name
# A B C D E F G H I J K L M N O P Q R S T U V W X Y Z

Lil Wayne - Knockout tab

KnockOut
Lil Wayne (ft. Nicki Minaj)
Rebirth
2010

Chords thanks to _______? (the person that went “these are the same chords all the way 
through the song
Chords: D  A  Bm  G
4 counts on each”)

By the way, I censored the language; am thinking about replacing each swear word with 
either a NAME (e.g. Ahh, BOB It!)
or ISLAND SLANG (e.g. Whe-when I throw dis TUFENKEH…)
or an OLD VICTORIAN PHRASE (e.g. “Then thy hind she threw back, back I say”) please 
tweet me or message me for suggestions or what your choice is [Name/Island Slang/Victorian] 
or if I made a mistake O_o

Twitter/YouTube: @Steqhy Tumblr: StephyDid

D  x57775
A  577655
Bm x24432
G  355433

Main Riff

e|------------------------------------------------------------------------------|
B|------------------------------------------------------------------------------|
G|-----11-11-9--------------------------------11-11-9---------------------------|
D|--00----------------0-00----------7-7-0--00----------------0-00-----7-7----0--|
A|-------------77-9-9------9-9-7-77-------------------77-9-9------7-7-----9-9---|
E|------------------------------------------------------------------------------|

Bridge 1 (after 2nd chorus) h=hold

e|------------------------------------------------------------------------------|
B|---------------7777--------------7777--------------7777-11h-------------------|
G|--888888888888------888888888888------888888888888----------------------------|
D|------------------------------------------------------------------------------|
A|------------------------------------------------------------------------------|
E|------------------------------------------------------------------------------|


Bridge 2 – overlapping with bridge 1

e|-------------------|
B|-----5--------5----|
G|---5---5----5---5--|
D|--7-------5--------|
A|-------------------|
E|-------------------|

For the rest of the time, like during verses, it’s just hitting down mainly on the bass 
part of each chord

Uh!
Yeahh...
Ohhhh!
Yeaa.

[Lil Wayne]
Hey Barbie!
Ah ah ahh,
are you into black men?,
Hey Barbie,
Can I be your black Ken,
Whoa! Cause once you go black you never go back,
She wear her hair black,
With curls on her back,
Then she threw that a-- back back back,
Then I fell to the matt and after that everything went BLACK!

[Chorus]
Baby 1 2 3,
tell em get the referee,
Cause he can, He can, get the knock out( get the Knockout)
get the telephone please, its an emergency
Cause he can, he can get the knock out ( get the knock out)


[Lil Wayne]
Hey Barbie, Can I call you Barbara,
Hey Barbie, Can I call you tomorrow and today?
Cause once you go black you never go back,
And when she go ‘Wayne’ everybody else is whack,
The she threw that a-- back back back,
Then I fell to the matt and after that everything went BLACK!
[ Tab from: http://www.guitaretab.com/l/lil-wayne/261174.html ]
[Nicki Minaj - Chorus]
Baby 1 2 3,
tell em get the referee,
Cause he can, He can, get the knock out (The Knock Out)
get the telephone please, its an emergency
Cause he can, He Can, get the knock out (The Knockout)
http://www.elyricsworld.com/knockout_lyrics_lil'_wayne.html

[Nicki Minaj - Verse]
Ahh f--- it! Get me that damn bucket!,
Whe-when I throw this p--- you better not start duckin’,
Oh YOOO! HIT HIT EM WITH THE BLOW!!
Loo-look at the crowd, And everybody yelling NO!!
Grab him by his locks and give us a good box,
Then hit him below the belt I wanna give him good top,
TOP TOP give em good top hit em below the belt want em to give him good top,
123 they yelling 123, I hit em wit that mf
Courtt 2 piece', tell em tell em to mop out, to late to cop out,
Give em more head than tupee's that’s a KNOCKOUT!

[Nicki Minaj Chorus]
Baby 1 2 3,
tell em get the referee,
Cause he can, get the knock out(Knock Out)
get the telephone please, its an emergency
Cause he can, get the knock out


[Lil Wayne]
SO JUST KNOCK ME OUT!!!
SO JUST KNOCK ME OUT!!!
Damn,
JUST KNOCK ME OUT!!!
SO JUST KNOCK ME OUT!!!
JUST KNOCK ME OUT!!!
JUST KNOCK ME OUT!!!
JUST KNOCK ME OUT!!!
JUST KNOCK ME OUT!!!
Tap to rate this tab
 
# A B C D E F G H I J K L M N O P Q R S T U V W X Y Z