Song name
# A B C D E F G H I J K L M N O P Q R S T U V W X Y Z

Lil Wayne - Mirror tab

                         *******************Mirror***************************
                                    Lil Wayne feat. Bruno Mars
                                         Tha Carter IV


  
Transcribed by: D. Scott 
Email: onines7@gmail.com

Choir Voices   
e||----------|----------|--------------|-----------------||
B||o---------|----------|--------------|----------------o||
G||----------|----------|--------------|-----------------||<--Continous
D||---6~--5~-|--1~-5-3~-|---5h6-10~-5~-|--6h8-10~-5~-3~--||  Repeat during 
A||o---------|----------|--------------|----------------o||   Rap Verses
E||----------|----------|--------------|-----------------||(play once as intro)
                     
Chorus Vocals: Bruno Mars
e||------------------------|--------------------|---------------------------|
B||------------------------|--------------------|---------------------------|
G||------------------------|--------------------|---------------------------| 
D||----6-6----6--8---5~----|--1----1--5---1-3~--|--3-------5--6----10--5~---|
A||------------------------|--------------------|---------------------------|
E||------------------------|--------------------|---------------------------|
       Mirror on the wall     Here we are again    Through my rise and fall

e||------------------------------|----------------------------|
B||------------------------------|----------------------------|
G||------------------------------|----------------------------|
D||----5-----6----8--10-5--3~----|--3---3---3--------3----5~--|
A||------------------------------|--------------3-------------|
E||------------------------------|----------------------------|
      You've been my on-ly friend    You told me that they can 

e||------------------------------|---------------------|----------------------|
B||------------------------------|---------------------|----------------------|
G||------------------------------|---------------------|----------------------|
D||--6-8--11----10--8---6-3------|--10-8---6---3~--5~--|--5-3----5--3----5-3--|
A||------------------------------|---------------------|----------------------|
E||------------------------------|---------------------|----------------------|
     Understand the man I am        So why are we  here   talkin to each other

e||--------------------||
B||--------------------||
G||--------------------||
D||--6---5---1---3-----||
A||--------------------||
E||--------------------||
     Aga-aih-aih-ain   

Thank you, hope you like it.    
Tap to rate this tab
 
# A B C D E F G H I J K L M N O P Q R S T U V W X Y Z