Song name
# A B C D E F G H I J K L M N O P Q R S T U V W X Y Z

Lil Wayne - Runnin tab

i was messing around while in drop c tuning and i played a part like i would in 
the song never too late by three days grace. well here it is

Tuning: DROP C (C G C F A D)

VERSE:
D|--------------------------------------------------------------------------|
A|--------------------------------------------------------------------------|
F|--------------------------------------------------------------------------|
C|---13---13---13---13---16---16---9---9------------------------------------|
G|---11---11---11---11---14---14---7---7------------------------------------|
C|---11---11---11---11---14---14---7---7------------------------------------|
   REPEAT THIS ALL VERSES 
PRE-CHORUS: 
D|----------------------------------------------------------------------|
A|----------------------------------------------------------------------|
F|----------------------------------------------------------------------|
C|----------------------------------------------------------------------|
A|7-7-7-7-7-7-7-7-7-7-7-7-7-7-7-7-7-7-7-7-7-7-7-7-7-7-7-7-7-7-7-7-7-7---|
C|----------------------------------------------------------------------|
  PALM MUTE IN THE BEGING OF THIS THEN SLOWLY RELEASE THE PALM MUTE AT THE END

 CHORUS:
D|-------------------------------------------------------------------------|
A|-------------------------------------------------------------------------|
F|-------------------------------------------------------------------------|
C|--7-------9--------------------------------------------------------------|   
A|--7-------9--------------------------------------------------------------|
C|--7-------9--------------------------------------------------------------|

 LISTEN TO THE SONG TO GET THE RIGHT STRUMMING PATTERN 
Tap to rate this tab
 
# A B C D E F G H I J K L M N O P Q R S T U V W X Y Z