Song name
# A B C D E F G H I J K L M N O P Q R S T U V W X Y Z

Lil Wayne - La La tab

-------------------------------------------------------------------------------
                             La La - Lil Wayne
-------------------------------------------------------------------------------
Tabbed by:Rob Freeman
E-mail:Rob.Freeman1@hotmail.com

Tuning:Standard

e|---------------------------------------------------------------------------|
B|---------------------------------------------------------------------------|
G|---------------------------------------------------------------------------|
D|---------------------------------------------------------------------------|
A|-------------------------7--7----7-----5-----------------------------------|
E|----5-------5---5----8---------------------8------5------------------------|

e|---------------------------------------------------------------------------|
B|---------------------------------------------------------------------------|
G|---------------------------------------------------------------------------|
D|---------------------------------------------------------------------------|
A|-------------------------10----10------10-----8----------------------------|
E|---------8----8----11-----------------------------11-----8-----------------|

e|---------------------------------------------------------------------------|
B|---------------------------------------------------------------------------|
G|---------------------------------------------------------------------------|
D|---------------------------------------------------------------------------|
A|----12---11--10--9--8--7--6--5--4------------------------------------------|
E|---------------------------------------------------------------------------|

That is the whole song. Play what is written in time with the song. 
Tap to rate this tab
 
# A B C D E F G H I J K L M N O P Q R S T U V W X Y Z