Song name
# A B C D E F G H I J K L M N O P Q R S T U V W X Y Z

Lil Wayne - This Is The Carter tab

    Bb  Dm  Gm     Cm7  Dm7
e---6---5---3-------3----5------------------------------|
B---6---6---3-------4----6------------------------------|
G---7---7---3-------3----5------------------------------|
D-------------------------------------------------------|
A-------------------------------------------------------|
E-------------------------------------------------------|

    Bb  Dm  Gm     Cm7   F
e---6---5---3-------3----1----------------------------|
B---6---6---3-------4----1----------------------------|
G---7---7---3-------3----2----------------------------|
D-----------------------------------------------------|
A-----------------------------------------------------|
E-----------------------------------------------------|


Whole Song - Listen for it
WEEZY F BABY!
Tap to rate this tab
 
# A B C D E F G H I J K L M N O P Q R S T U V W X Y Z