Song name
# A B C D E F G H I J K L M N O P Q R S T U V W X Y Z

Lillix - Sweet Temptation tab

-------------------------------------------------------------------------------
			  Sweet Temptation (Hollow) - Lillix
-------------------------------------------------------------------------------
Tabbed by: ph0
Email: a1a1na@hotmail.com

Tuning: eBGDAE

This tab is my first one (you'll see how it is as you go along). I'm pretty sure
this is one of the first Sweet Temptation Tabs out there right now; so it's
really appreciated if you use it. ^_^

This song is COMPLETELY distorted.

(A)
The first guitar part that goes halfway through the first verse is played:
e|---------------------------------------------------------------------------|
B|---------------------------------------------------------------------------|
G|---------------------------------------------------------------------------|
D|--3-3-5-5-6-6-2-2-3-3-5-5-6-6-2-2------------------------------------------|
A|---------------------------------------------------------------------------|
E|--1-1-3-3-4-4-0-0-1-1-3-3-4-4-0-0------------------------------------------|

(B)
The chorus is played 2x like this; and then another 2x during "Yeah, yeah,
eyeah, yeah, rise inside the hollow..."
e|-----------------------------------------------------------------------------------|
B|-----------------------------------------------------------------------------------|
G|-----------------------------------------------------------------------------------|
D|--10-10-10-10-10-10-10-10-12-12-12-12-13-13-13-13-8-8-8-8-8-8-8-8-9-9-9-9-5-5-5-5--|
A|-----------------------------------------------------------------------------------|
E|--8--8--8--8--8--8--8--8--10-10-10-10-11-11-11-11-6-6-6-6-6-6-6-6-7-7-7-7-3-3-3-3--|


(C)
This is one of the harder parts played halfway during the "1, 2, 3, 4" part.
The rhythm is easy to pick up if you listen very carefully. It goes:
e|---------------------------------------------------------------------------|
B|---------------------------------------------------------------------------|
G|---------------------------------------------------------------------------|
D|---------------------------------------------------------------------------|
A|-8-8h10p8--8-10-8-7-7h8p7--7-8-7-6-6h8p6--6-8-6-5-5h6p5--3-4-3--8-11-10-8--|
E|---------------------------------------------------------------------------|
and it is played 4 times. Using a TalkBox here gets the effect, or a simple
distortion pedal and wah pedal.


The complete order of this song is (don't forget to pause where there is no guitar):

First Verse
A - 1x
Still First Verse
B (Chorus) - 4x
Second Verse
B (Chorus) - 4x
Bridge
C - 4x
B (Chorus) - 6x AND HIT THE LAST CHORD TWICE!

Enjoy it. It's a great song. -ph0




| /  slide up
| \  slide down
| h  hammer-on
| p  pull-off
| ~  vibrato
| +  harmonic
| x  Mute note
===============================================================================
Tap to rate this tab
 
# A B C D E F G H I J K L M N O P Q R S T U V W X Y Z