Song name
# A B C D E F G H I J K L M N O P Q R S T U V W X Y Z

Lily Allen - Him tab

××××××××××××××××××××××××××××××××××××××××××××××××××××××××××××××××××××××××××××××××
                                     H i m
                     ( A c o u s t i c   S e c t i o n s )
                               L I L Y   A L L E N
××××××××××××××××××××××××××××××××××××××××××××××××××××××××××××××××××××××××××××××××


   +--------------------------PLEASE NOTE--------------------------+
   + This file is Jordan Lapping’s own work and represents his     +
   + interpretation of the song. You may only use this file for    +
   + private study, scholarship, or research. The contents may not +
   + be duplicated for use with other websites without written     +
   + permission. Thank you for understanding. Enjoy.               +
   +---------------------------------------------------------------+


Tabbed by Jordan Lapping

Tuning: Standard E


 CHORDS USED:
     A    Am   A#   F  Fmaj7 F6
e]---0----0----x----1----1----1---|
B]---2----1----3----1----1----1---|
G]---2----2----3----2----2----2---|
D]---2----2----3----3----2----0---|
A]---0----0----1--------------0---|
E]--------------------------------|



 INTRO/VERSES:
    F     Fmaj7 F6            A#
e]------1-----1-----1-----1-|--------------------------|
B]--------------------------|-----3-----3-----3-----3--|
G]----2-----2-----2-----2---|--------------------------|
D]--3-----2-----0-----------|---3-----3-----3-----3----|
A]--------------------0-----|-1-----1-----1-----1------|
E]--------------------------|--------------------------|

    F     Fmaj7 F6    F       A#
e]------1-----1-----1-----1-|--------------------------|
B]--------------------------|-----3-----3-----3-----3--|
G]----2-----2-----2-----2---|--------------------------|
D]--3-----2-----0-----3-----|---3-----3-----3-----3----| (x2)
A]--------------------------|-1-----1-----1-----1------|
E]--------------------------|--------------------------|

    Am                         A
e]--------------------------|-----------------0--------|
B]------1-----------1-------|-----2--------------------|
G]--------------------------|--------------------------|
D]----2---2---2---2---2---2-|---2---2---2---2---2---2--|
A]--0-------0---0-------0---|-0-------0---0-------0----|
E]--------------------------|--------------------------|


 OUTRO:
    F     Fmaj7 F6            A#                     F
e]------1-----1-----1-----1-|-------------|---------------1~~~--|
B]--------------------------|-----3-----3-|--------------1~~~---|
G]----2-----2-----2-----2---|-------------|-------------2~~~----|
D]--3-----2-----0-----------|---3-----3---|------------3~~~-----|
A]--------------------0-----|-1-----1-----|-1--0------3~~~------|
E]--------------------------|-------------|-------3--1~~~-------|




××××××××××××××××××××××××××××××××××××××××××××××××××××××××××××××××××××××××××××××××

××××××××××××××××××××××××××××××××××××××××××××××××××××××××××××××××××××××××××××××××
Tap to rate this tab
# A B C D E F G H I J K L M N O P Q R S T U V W X Y Z