Song name
# A B C D E F G H I J K L M N O P Q R S T U V W X Y Z

Lily Allen - Ldn Acoustic tab

-------------------------------------------------------------------------------
			     LDN (Acoustic Version)  - Lily allen
-------------------------------------------------------------------------------
Tabbed by: Rocky Guitar
Email:

Tuning: Standard 


Intro

e|------------------------------|--------------------------------------------|
B|--------10-----------8/11-----|-------10---------8-------------------------|
G|-----10----10---9----9/12-----|----10----10---9----------------------------|
D|------------------------------|--------------------10----------------------|
A|------------------------------|--------------------------------------------|
E|------------------------------|--------------------------------------------|

     Verse - Chords played on off beat, reggae timing.


e|--------1--------------1---------------------------------------------------|
B|--------1--------------1---------------------------------------------------|
G|--------2--------------3---------------------------------------------------|
D|--------3--------------2---------------------------------------------------|
A|--------3--------------3---------------------------------------------------|
E|--------1--------------1---------------------------------------------------|

     Chorus 

e|--------8-----------8------------------------------------------------------|
B|--------10----------8------------------------------------------------------|
G|--------10----------9------------------------------------------------------|
D|--------10----------8------------------------------------------------------|
A|--------8-----------10-----------------------------------------------------|
E|--------X-----------(8)----------------------------------------------------|

Tap to rate this tab
# A B C D E F G H I J K L M N O P Q R S T U V W X Y Z