Song name
# A B C D E F G H I J K L M N O P Q R S T U V W X Y Z

Limozeen - Because Its Midnite tab

Tuning: Standard (EADGBe)
Tab by: k3v227


Some quick info (Please read):

The following tab is based off of the original song from http://www.homestarrunner.com/.
ALSO, please consult the Tablature Legend located at the bottom of the page. Thanks and enjoy.


Link:

http://www.youtube.com/watch?v=jsArcMMqbhw



   D7            F7
e|------------------|
B|-10---10-------13-|
G|---------12-10----|
D|------------------|
A|------------------|
E|------------------|

   C7                   D7
e|----------------10-13-10----|
B|-13-10----10-13-------------|
G|-------12-------------------|
D|----------------------------|
A|----------------------------|
E|----------------------------|

   D7               F7
e|-10------10-------13-|
B|------------13-10----|
G|---------------------|
D|---------------------|
A|---------------------|
E|---------------------|

   C7                      D7
e|-13-15-17p15p13-15-17-20-22-|
B|----------------------------|
G|----------------------------|
D|----------------------------|
A|----------------------------|
E|----------------------------|


   m m m m m m m m  m  m  m  m  m  m  m  m  m m m m m m m m m m m m m m m m
e|--------------------------------------------------------------------------|
B|--------------------------------------------------------------------------|
G|--------------------------------------------------------------------------|
D|-7-7-7-7-7-7-7-10-10-10-10-10-10-10-10-10-5-5-5-5-5-5-5-7-7-7-7-7-7-7-7-7-|
A|-5-5-5-5-5-5-5-8--8--8--8--8--8--8--8--8--3-3-3-3-3-3-3-5-5-5-5-5-5-5-5-5-|
E|--------------------------------------------------------------------------|

   m m m m m m m m  m  m  m  m  m  m  m  m  m m m m m m m m
e|----------------------------------------------------------|
B|----------------------------------------------------------|
G|----------------------------------------------------------|
D|-7-7-7-7-7-7-7-10-10-10-10-10-10-10-10-10-5-5-5-5-5-5-5-7-|
A|-5-5-5-5-5-5-5-8--8--8--8--8--8--8--8--8--3-3-3-3-3-3-3-5-|
E|----------------------------------------------------------|


   D7            F7            C7           D7
e|--------------------------------------------------------|
B|--------------------------------------------------------|
G|-7----------------9-10-9-----7------------10-9-7----7-9-| x2
D|-------------------------10----------------------10-----|
A|--------------------------------------------------------|
E|--------------------------------------------------------|


   m m m m m m m m m m m m m m m m m m m m m m m m m m m m m m m m
e|-----------------------------------------------------------------|
B|-----------------------------------------------------------------|
G|-5-7-7-5-7-7-7-5-5-5-9-5-9-5-9-5-5-7-7-5-7-7-5-7-7-7-7-7-7-7-7-7-|
D|-----------------------------------------------------------------|
A|-----------------------------------------------------------------|
E|-----------------------------------------------------------------|

   m m m m m m m m m m m m m m m m m m m m m m m m
e|-------------------------------------------------|
B|-------------------------------------------------|
G|-5-7-7-5-7-7-7-5-5-5-9-5-9-5-9-5-5-7-7-5-7-7-5-7-|
D|-------------------------------------------------|
A|-------------------------------------------------|
E|-------------------------------------------------|

   D7            F7            C7           D7
e|--------------------------------------------------------|
B|--------------------------------------------------------|
G|-7----------------9-10-9-----7------------10-9-7----7-9-| x2
D|-------------------------10----------------------10-----|
A|--------------------------------------------------------|
E|--------------------------------------------------------|



SYNTH SOLO!!

(The solo in this song is done on a keyboard and is very fast (almost all 32nd notes).
So when playing the solo, keep in mind that is what you are trying to emulate. Also, it
might be a good idea to play the solo as 16th note triplets or even 16th notes instead 
of 32nd notes at first. Finally, use tapping or even pick tapping where you see fit. Enjoy!)

                            | (5 Times)   | (4 Times)   | (5 Times)
e|--------------------------|-------------|-------------|--------------|
B|-15p10h15p10h15p10h15p10h-|-15p10p6h10h-|-15p12p8h12h-|-17p13p10h13h-|
G|--------------------------|-------------|-------------|--------------|
D|--------------------------|-------------|-------------|--------------|
A|--------------------------|-------------|-------------|--------------|
E|--------------------------|-------------|-------------|--------------|

       (Trill) |(16th notes)           (16th note triplets)
e|-------------|-16p-15--------16p-15---16p15--15----------------------|
B|-15---15h18p-|--------15h-18---------------18--18p15h18p15--15-------|
G|-------------|--------------------------------------------17---17-14-|
D|-------------|-------------------------------------------------------|
A|-------------|-------------------------------------------------------|
E|-------------|-------------------------------------------------------|

          | (6 Times)
e|-10h13h-|-17p13p10h13h-|
B|--------|--------------|
G|--------|--------------|
D|--------|--------------|
A|--------|--------------|
E|--------|--------------|

   (16th notes)                             | (4 Times)
e|-16-15-13-15-16-15-16-15-13-15-16-15-13---|-17p15p13h15h-|-15h-17p-15-|
B|---------------------------------------15-|--------------|------------|
G|------------------------------------------|--------------|------------|
D|------------------------------------------|--------------|------------|
A|------------------------------------------|--------------|------------|
E|------------------------------------------|--------------|------------|

   (Trill)|
e|-17h20p-|-22-|
B|--------|----|
G|--------|----|
D|--------|----|
A|--------|----|
E|--------|----|


e|-----|
B|-----|
G|-----|
D|-12\-|
A|-12\-|
E|-----|

   m
e|-------------------|
B|-------------------|
G|-------------------|
D|-------------------|
A|-5-7h8p7-3/5---8---|
E|-------------------|

   m
e|-------------------|
B|-------------------|
G|-------------------|
D|-------------------|
A|-5-7h8p7-3/5-------|
E|---------------8---|

e|------------------------|
B|------------------------|
G|------------------------|
D|-5-5-5-5-6-6(b7)--------|
A|-3-3-3-3------------8-5-|
E|------------------------|


   m m m m m m m m  m  m  m  m  m  m  m  m  m m m m m m m m m m m m m m m m
e|--------------------------------------------------------------------------|
B|--------------------------------------------------------------------------|
G|--------------------------------------------------------------------------|
D|-7-7-7-7-7-7-7-10-10-10-10-10-10-10-10-10-5-5-5-5-5-5-5-7-7-7-7-7-7-7-7-7-|
A|-5-5-5-5-5-5-5-8--8--8--8--8--8--8--8--8--3-3-3-3-3-3-3-5-5-5-5-5-5-5-5-5-|
E|--------------------------------------------------------------------------|

   m m m m m m m m  m  m  m  m  m  m  m  m  m m m m m m m m
e|----------------------------------------------------------|
B|----------------------------------------------------------|
G|----------------------------------------------------------|
D|-7-7-7-7-7-7-7-10-10-10-10-10-10-10-10-10-5-5-5-5-5-5-5-7-|
A|-5-5-5-5-5-5-5-8--8--8--8--8--8--8--8--8--3-3-3-3-3-3-3-5-|
E|----------------------------------------------------------|


   D7          F7              C7           D7
e|--------------------------------------------------------|
B|--------------------------------------------------------|
G|-7----------------9-10-9-----7------------10-9-7----7-9-| x2
D|-------------------------10----------------------10-----|
A|--------------------------------------------------------|
E|--------------------------------------------------------|

   D7            F7
e|------------------|
B|-10---10-------13-|
G|---------12-10----|
D|------------------|
A|------------------|
E|------------------|

   C7                   D7
e|----------------10-13-10----|
B|-13-10----10-13-------------|
G|-------12-------------------|
D|----------------------------|
A|----------------------------|
E|----------------------------|

   D7               F7
e|-10------10-------13-|
B|------------13-10----|
G|---------------------|
D|---------------------|
A|---------------------|
E|---------------------|

   C7                     D7
e|-13-15-17p15p13-15-17---22-|
B|---------------------------|
G|---------------------------|
D|---------------------------|
A|---------------------------|
E|---------------------------|

e|--------------|
B|-15-15-15-15\-|
G|--------------|
D|--------------|
A|--------------|
E|--------------|



Tablature Legend
----------------
x - dead note
m - palm mute
> - accented note
~ - sustain note
NH - natural harmonic
PH - pinch harmonic
TH - tapped harmonic
h - hammer on
p - pull off
b - bend
\ -  slide down the neck
/ -  slide up the neck
X\ - pick scratch down
tr - trill
T - tapping
PT - pick tapping
Tap to rate this tab
 
# A B C D E F G H I J K L M N O P Q R S T U V W X Y Z