Song name
# A B C D E F G H I J K L M N O P Q R S T U V W X Y Z

Limozeen - Because Its Midnite tab

This is the insanely fast keyboard solo from Because Its Midnite. 
Its played on a keyboard but in case anyone wants to play it on guitar,... here it is...


Really, Really Fast   
e|---------------------------------------------------------------------------|
B|--15-10-15-10-15-10-15-10--15-10-6-15-10-6-15-10-6-15-10-6-15-10-6-15-10-6-|
G|---------------------------------------------------------------------------|
D|---------------------------------------------------------------------------|
A|---------------------------------------------------------------------------|
E|---------------------------------------------------------------------------|

e|---------------------------------------------------------------------------|
B|-17-13-6-17-13-6-17-13-6-17-13-6-17-13-6-17-13-6-18-15-10-18-15-10-18-15-10|
G|---------------------------------------------------------------------------|
D|---------------------------------------------------------------------------|
A|---------------------------------------------------------------------------|
E|---------------------------------------------------------------------------|

e|---------------------------------------------------------------------------|
B|-18-15-10-18-15-10-18-15-10--15--------------13-10-13-10-13-10-13-10-13-10-|
G|---------------------------------------------------------------------------|
D|---------------------------------------------------------------------------|
A|---------------------------------------------------------------------------|
E|---------------------------------------------------------------------------|

e|--15----10---15-16-15----10---15-16-15----10---15-16-15----10--15-16-15----|
B|---------------------------------------------------------------------------|
G|---------------------------------------------------------------------------|
D|---------------------------------------------------------------------------|
A|---------------------------------------------------------------------------|
E|---------------------------------------------------------------------------|

e|---13-10-8---10------------------------------------------------------------|
B|---------------------------------------------------------------------------|
G|---------------------------------------------------------------------------|
D|---------------------------------------------------------------------------|
A|---------------------------------------------------------------------------|
E|---------------------------------------------------------------------------|

e|---17----------17----------17----------17----------17----------17----------|
B|------15-13-15----15-13-15----15-13-15----15-13-15----15-13-15----15-13-15-|
G|---------------------------------------------------------------------------|
D|---------------------------------------------------------------------------|
A|---------------------------------------------------------------------------|
E|---------------------------------------------------------------------------|

e|--17----------------15----10---15-16-15----10---15-16-15----10---15-16-15--|
B|------15---13---15---------------------------------------------------------|
G|---------------------------------------------------------------------------|
D|---------------------------------------------------------------------------|
A|---------------------------------------------------------------------------|
E|---------------------------------------------------------------------------|

e|----10---15-16-15-------13-10-8---10---------------------------------------|
B|---------------------------------------------------------------------------|
G|---------------------------------------------------------------------------|
D|---------------------------------------------------------------------------|
A|---------------------------------------------------------------------------|
E|---------------------------------------------------------------------------|

e|---17-15-17-15-17-15-17-15-17-15-17-15-17-15-17-15-17-15-17-15-17-15-17-15-|
B|---------------------------------------------------------------------------|
G|---------------------------------------------------------------------------|
D|---------------------------------------------------------------------------|
A|---------------------------------------------------------------------------|
E|---------------------------------------------------------------------------|

e|---20-17-20-17-20-17-20-17-20-17-20-17-20-17-20-17-20-17-20-17---22--------|
B|---------------------------------------------------------------------------|
G|---------------------------------------------------------------------------|
D|---------------------------------------------------------------------------|
A|---------------------------------------------------------------------------|
E|---------------------------------------------------------------------------|

*Piano Slide*



Thanx
Tap to rate this tab
# A B C D E F G H I J K L M N O P Q R S T U V W X Y Z