Song name
# A B C D E F G H I J K L M N O P Q R S T U V W X Y Z

Limozeen - Nite Mamas tab

Nite Mamas by: Limozeen
Tabbed by Underdogg0

VERSE:
e|---------------------------------------------------------------|
B|---------------------------------------------------------------|
G|----------------5/7-7-7-7-7-7--11/9-9-9-11/9-9-9-11/9-9-9-9-9-9|
D|-5/7-7-7-7-7-7--5/7-7-7-7-7-7--11/9-9-9-11/9-9-9-11/9-9-9-9-9-9|X4
A|-5/7-7-7-7-7-7--3/5-5-5-5-5-5---9/7-7-7--9/7-7-7--9/7-7-7-7-7-7|
E|-3/5-5-5-5-5-5-------------------------------------------------|



CHORUS:
e|-----------------|
B|-----------------|
G|-3-------------5-|
D|-3------3------5-|X4
A|-1------3------3-|
E|--------1--------|




Tap to rate this tab
# A B C D E F G H I J K L M N O P Q R S T U V W X Y Z