Song name
# A B C D E F G H I J K L M N O P Q R S T U V W X Y Z

Limp Bizkit - Faith tab

t. See http://www.olga.net/faq/ for more information.                     #
#-----------------------------------------------------------------------------#

From: "Sid" 
Subject: l/limp_bizkit/faith.tab
Date: Wed, 4 Aug 1999 16:44:27 +1000

Faith
preformed by Limp Bizkit 
as on Three Dollar Bill, Yall!
Tabbed by Daniel Purdon (munky@mail.usa.com)
Mail me any mistakes.


intro
G|-------|
D|---7---|
A|-------|
E|---7---|
"Faith"


verse 1
G|---------------------------------|
D|---------------------------------|
A|---------------------------------|
E|-7-------7-------5-----10--7-----|

prechorus
G|------------------------------|
D|------------------------------|
A|-0-2-4----6-9-4----0-2-4----6-|
E|------------------------------|

chorus
G|---------------------|
D|---------------------|
A|---------------------|
E|-7-7-7-7-7-7-7-7-7-8-|


verse 2
G|-----------------------------------------|
D|-----------------------------------------|
A|-----------------------------------------|
E|-7-7-7-7-7-7-7-7-7-7-5-5-5-5-5-7-7-7-7-7-|

outro
G|-----------------|
D|-----------------|	+heaps of scratching with the edge of 
A|-----------------|	 the pick.
E|--0--0-0-0-0-0/1-|


That's it for this easy song.
Tap to rate this tab
# A B C D E F G H I J K L M N O P Q R S T U V W X Y Z