Song name
# A B C D E F G H I J K L M N O P Q R S T U V W X Y Z

Limp Bizkit - Wish You Were Here tab

Tab by: ciretnotlehs@gmail.com
If you have any questions, just email me, it took me around 3-4hours to figure this out, 
all of it should be Completely right.

Notes:
You might need to tweak on the verse, the 7th-fret chord might need to drop the top 
on your preference).
The song is pretty much Intro/Verse/Intro/Verse/Intro, simple stuff.
Just listen to the song to find the real rhythm.
The title(ex:Intro; Verse)will show you the change, if its not there, then it's part of 
existing title.

Enjoy


Intro
e ------------------------------------------------------------|
b ------------------------------------------------------------|
g ---------6-6-6-6------4-4-4-4---------6-6-6-6------4-4-4-4--|
d ---------6-6-6-6-2----4-4-4-4---------6-6-6-6-2----4-4-4-4--|
a -----2-4-4-4-4-4--4-2-2-2-2-2-----2-4-4-4-4-4--4-2-2-2-2-2--|
E --2h4--------------------------2h4--------------------------|


e -------------------------------------------------------------------------|
b -------------------------------------------------------------------------|
g ---------6-6--------------4-4-4-4--------6-6-------------4-4-4-4-4-4-4-4-|
d ---------6-6--------------4-4-4-4--------6-6-------------4-4-4-4-4-4-4-4-|
a -----2-4-4-4---2h4-2------2-2-2-2----2-4-4-4----2h4-2----2-2-2-2-2-2-2-2-|
E --2h4-----------------4-2--------2h4-----------------4-2-----------------|


e ----------|
b ----------|
g ------1---|
d ------2---|
a ----2-2---|
E -2h4------|


Verse
e --2---2---2---7---2---2---2------|
b --2---4---2---7---4---2---2------|
g --2---4---2---9---4---2---2---1--| Repeat
d --4---4---4---9---4---4---4---2--|
a --4---2---4---7---2---4---4---2--|
E --2---2---2---7---2---2---2------|

Repeat Intro
e ------------------------------------------------------------|
b ------------------------------------------------------------|
g ---------6-6-6-6------4-4-4-4---------6-6-6-6------4-4-4-4--|
d ---------6-6-6-6-2----4-4-4-4---------6-6-6-6-2----4-4-4-4--|
a -----2-4-4-4-4-4--4-2-2-2-2-2-----2-4-4-4-4-4--4-2-2-2-2-2--|
E --2h4--------------------------2h4--------------------------|


e -------------------------------------------------------------------------|
b -------------------------------------------------------------------------|
g ---------6-6--------------4-4-4-4--------6-6-------------4-4-4-4-4-4-4-4-|
d ---------6-6--------------4-4-4-4--------6-6-------------4-4-4-4-4-4-4-4-|
a -----2-4-4-4---2h4-2------2-2-2-2----2-4-4-4----2h4-2----2-2-2-2-2-2-2-2-|
E --2h4-----------------4-2--------2h4-----------------4-2-----------------|


e ----------|
b ----------|
g ------1---|
d ------2---|
a ----2-2---|
E -2h4------|

Repeat Verse
e --2---2---2---7---2---2---2------|
b --2---4---2---7---4---2---2------|
g --2---4---2---9---4---2---2---1--| Repeat
d --4---4---4---9---4---4---4---2--|
a --4---2---4---7---2---4---4---2--|
E --2---2---2---7---2---2---2------|

Repeat Intro
e ------------------------------------------------------------|
b ------------------------------------------------------------|
g ---------6-6-6-6------4-4-4-4---------6-6-6-6------4-4-4-4--|
d ---------6-6-6-6-2----4-4-4-4---------6-6-6-6-2----4-4-4-4--|
a -----2-4-4-4-4-4--4-2-2-2-2-2-----2-4-4-4-4-4--4-2-2-2-2-2--|
E --2h4--------------------------2h4--------------------------|


e -------------------------------------------------------------------------|
b -------------------------------------------------------------------------|
g ---------6-6--------------4-4-4-4--------6-6-------------4-4-4-4-4-4-4-4-|
d ---------6-6--------------4-4-4-4--------6-6-------------4-4-4-4-4-4-4-4-|
a -----2-4-4-4---2h4-2------2-2-2-2----2-4-4-4----2h4-2----2-2-2-2-2-2-2-2-|
E --2h4-----------------4-2--------2h4-----------------4-2-----------------|


e ----------|
b ----------|
g ------1---|
d ------2---|
a ----2-2---|
E -2h4------|
Tap to rate this tab
 
# A B C D E F G H I J K L M N O P Q R S T U V W X Y Z