Song name
# A B C D E F G H I J K L M N O P Q R S T U V W X Y Z

Limp Bizkit - Nevermind tab

-------------------------------------------------------------------------------
			  Nevermind - Limp Bizkit
-------------------------------------------------------------------------------
Tabbed by: Eduardo lan
Email: eduardolan@hotmail.com

Tuning:

e|---------------------------------------------------------------------------|
B|---------------------------------------------------------------------------|
G|---------------------------------------------------------------------------|
D|----7-7-----7-7-----7-7---7-7----------------------------------------------|
A|---5-5-5---0-0-0--------------0--------------------------------------------|
g|-------------------5-5-5-5-5-----------------------------------------------|

e|---------------------------------------------------------------------------|
B|---------------------------------------------------------------------------|
G|---------------------------------------------------------------------------|
D|----7-7-----7-7-----7-7---7-7----------------------------------------------|
A|---5-5-5---0-0-0--------------0--------------------------------------------|
g|-------------------5-5-5-5-5-----------------------------------------------|

Chorus
e|---------------------------------------------------------------------------|
B|---------------------------------------------------------------------------|
G|---5-5-5--5-5---7-7-7--7-7---7-7-7--7-7--7--7-7-7--7-7---------------------|
D|---5-5-5--5-5---7-7-7--7-7---7-7-7--7-7--7--7-7-7--7-7---------------------|
A|---3-3-3--3-3---5-5-5--5-5---5-5-5--5-5--0--5-5-5--5-5---------------------|
g|-----------------------------5-5-5--5-5--0--5-5-5--5-5---------------------|

e|---------------------------------------------------------------------------|
B|---------------------------------------------------------------------------|
G|---5-5-5--5-5---7-7-7--7-7---7-7-7--7-7--7--7-7-7--7-7---------------------|
D|---5-5-5--5-5---7-7-7--7-7---7-7-7--7-7--7--7-7-7--7-7---------------------|
A|---3-3-3--3-3---5-5-5--5-5---5-5-5--5-5--0--5-5-5--5-5---------------------|
g|-----------------------------5-5-5--5-5--0--5-5-5--5-5---------------------|

e|---------------------------------------------------------------------------|
B|---------------------------------------------------------------------------|
G|---------------------------------------------------------------------------|
D|----7-7-----7-7-----7-7---7-7----------------------------------------------|
A|---5-5-5---0-0-0--------------0--------------------------------------------|
g|-------------------5-5-5-5-5-----------------------------------------------|

e|---------------------------------------------------------------------------|
B|---------------------------------------------------------------------------|
G|---------------------------------------------------------------------------|
D|----7-7-----7-7-----7-7---7-7----------------------------------------------|
A|---5-5-5---0-0-0-----------------------------------------------------------|
g|-------------------5-5-5-5-5-----------------------------------------------|
Tap to rate this tab
# A B C D E F G H I J K L M N O P Q R S T U V W X Y Z