Song name
# A B C D E F G H I J K L M N O P Q R S T U V W X Y Z

Limp Bizkit - Propaganda tab

The Propaganda from Limp Bizkit
Tuning: B-F#-B-E-G#-C#

Main/Verse(slight Palm Mute)
---------------------------------------------------|
---------------------------------------------------|
-------------------------------------------8888888-|
-------------------------------------------8888888-|
-2222222222223-22223-22223--2222222222223--6666666-|
-2222222222223-22223-22223--2222222222223----------|

Chorus
-----------------|
-----------------|
-----------------|
-52-23-52-23-523-|
-52-23-52-23-523-|
-52-23-52-23-523-|

-play Verse
-play Chorus

Interlude 1
---------------------------|
---------------------------|
---------------------------|
---------------------5(ph)-|
-22222222------------------|
-22222222-5223-53232-------|
 ........ .... .....

Interlude 2(1st part x4, then 2nd part x4, and repeat that way)
------------|------------|
------------|--------8-8-|
--------8-8-|--------8-8-|
--------8-8-|--------6-6-|
-3-33-x-6-6-|-2-22-x-----|
-3-33-x-----|-2-22-x-----|

Outro(1st part x4, then 2nd part x4, and repeat that way)
--------------|--------------|
--------------|--------------|
--------------|--------------|
--------------|--------------|
-3-33-x-------|-2-22-x-------|
-3-33-x-3b-3b-|-2-22-x-3b-3b-|
Tap to rate this tab
# A B C D E F G H I J K L M N O P Q R S T U V W X Y Z