Song name
# A B C D E F G H I J K L M N O P Q R S T U V W X Y Z

Limp Bizkit - Surrender tab

Help us improve GuitareTab! Take a short survey!
Song: Limp Bizkit - The Surrender
Album: The Unquestionable Truth

Tabbed by Balzs Szegedi - salawan@freemail.hu


This is a sleeping and relaxing song of the guys.
I'm quite sure it's the right, but not 100%...

E-----------------------------------------------------|
B-----------------------------------------------------|
G-----------------------------------------------------|
D---0-------------------------------------------------|
A---0-0------7/8--0--5------5---5----5---5----5---5---|
E------------------------3----3---2----2---0----0-----|

Play it twice, then Fred starts: "Don't label me a monster..."
Play the same 8 times.

Then play this 4 times, when Fred sings: "But you know theres a part of me..."

E-----------------------------------------------------|
B-----------------------------------------------------|
G-----------------------------------------------------|
D-----------------------------------------------------|
A---0---0-0----0---0-0--------------------------------|
E-------------------------3---3-3----2---2-2----------|

Then Wes comes in like this:

E-----------------------------------------------------|
B-----------------------------------------------------|
G---2/3/2-0-----2/3/2-0-----0-0-5---------------------|
D-----------------------------------------------------|
A-----------------------------------------------------|
E-----------------------------------------------------|

That's all. Have Fun!
Related for Surrender tab