Song name
# A B C D E F G H I J K L M N O P Q R S T U V W X Y Z

Limp Bizkit - Priest tab

Bass intro-then this
 4/4
  Gtr I
|--------------------------------------------|
|--------------------------------------------|
|--16-16--16-16-16-16--16-16-16--16-16-16----|
|--------------------------------------------|
|--14-14--14-14-14-14--14-14-14--14-14-14----|
|--------------------------------------------|


More bass then this...
|----------------------------------------------|
|----------------------------------------------|
|-20-20-20--20-20-20-20--20-20-20--20-20-20----|
|----------------------------------------------|
|-18-18-18--18-18-18-18--18-18-18--18-18-18----|
|----------------------------------------------|


Chorus riff
         PM
|----------------------------|
|----------------------------|
|----------------------------|
|-3-4-0--0--0-1-0-1-0--1-3-0-|
|-3-4-0--0--0-1-0-1-0--1-3-0-|
|-3-4-0--0--0-1-0-1-0--1-3-0-|

Variation(listen for it)
         PM
|-----------------------------------|
|-----------------------------------|
|-7/8-------------------------------|
|-----0--0--0-1-0-1-0--1-3-0--------|
|-5/6-0--0--0-1-0-1-0--1-3-0--------|
|-----0--0--0-1-0-1-0--1-3-0--------|



Bridge part
where fred talks, stops and all...just listen for timing
|-----------------------------------------|
|-----------------------------------------|
|-20-----------------20-20-20-20-20-20----|
|-----------------------------------------|
|-18-----------------18-18-18-18-18-18----|
|-----------------------------------------|
Tap to rate this tab
# A B C D E F G H I J K L M N O P Q R S T U V W X Y Z