Song name
# A B C D E F G H I J K L M N O P Q R S T U V W X Y Z

Limp Bizkit - Why tab

Verse x2
|---------------------| x4	|---------------------| x2
|-----3-3-2-0-2-0-----|	        |-----5-5-5-5-8-8-8---|
|-----2-2-2-2-2-2-0-2-|	        |-----7-7-7-7-7-7-7---|
|-0-0-0-0-0-0-0-0-0-0-|	        |-5-5-5-5-5-5-5-5-5-5-|
|-0-0-0-0-0-0-0-0-0-0-|	        |-5-5-5-5-5-5-5-5-5-5-|
|-0-0-0-0-0-0-0-0-0-0-|	        |-5-5-5-5-5-5-5-5-5-5-|

Bridge 1
|---------------------| x2	|-----------------------|
|-----3-3-2-0-2-0-----|	        |-----9-9-9-9-8---------|
|-----2-2-2-2-2-2-0-2-|	        |-----8-8-8-8-8----7~---|
|-0-0-0-0-0-0-0-0-0-0-|	        |-7-7-7-7-7-7-7-9--5~---|
|-0-0-0-0-0-0-0-0-0-0-|	        |-7-7-7-7-7-7-7-9--5~---|
|-0-0-0-0-0-0-0-0-0-0-|	        |-7-7-7-7-7-7-7-9--5~---|

Chorus 1
|-------------------| x2	|-------------------------------| x2
|-----3-------3-----|		|-----3-------3-----------------|
|-----2-------2--7--|		|-----2-------2--7--7-7--7-7--7-|
|---0-------0----7--|		|---0-------0----7--7-7--7-7--7-|
|----------------5--|		|----------------5--5-5--5-5--5-|
|-0-----0-2---------|		|-0-----0-2---------------------|

Verse x2

Bridge 2
|---------------------| x2	|-------------------------|
|-----3-3-2-0-2-0-----|	        |-------------------------|
|-----2-2-2-2-2-2-0-2-|	        |----------------7~-------|
|-0-0-0-0-0-0-0-0-0-0-|	        |-7--7-7--7-7-9--5-5~-----|
|-0-0-0-0-0-0-0-0-0-0-|	        |-7-10-7-10-7-9--5~-------|
|-0-0-0-0-0-0-0-0-0-0-|	        |-7--7-7--7-7-9--5~-------|

Chorus 2
|---------------------------------------| x3
|---------------------------------------|
|---------------------------------------|
|-0-0-0-0-2-2-2-5-5-5-9p7-7-7-7-7-7h9-9-|
|-0-0-0-0-2-2-2-5-5-5-5-5-5-5-5-5-5-5-5-|
|-0-0-0-0-2-2-2-5-5-5-5-5-5-5-5-5-5-5-5-|

|------------------------|
|------------------------|
|------------------------|
|-0-0-0-0-2-2-2-5~----5^-|
|-0-0-0-0-2-2-2-5~-------|
|-0-0-0-0-2-2-2-5~-------|

Interlude
|-------------------------------------------------------| x2
|-------------------------------------------------------|
|-------------------------------------------------------|
|--5h7-7-7-7-5--5--h7-7-7-7-5----5h7-7-7-5--5h7-7-7-7-5-|
|--5h7-7-7-7-5--5--h7-7-7-7-5----5h7-7-7-5--5h7-7-7-7-5-|
|--5h7-7-7-7-5--5--h7-7-7-7-5----5h7-7-7-5--5h7-7-7-7-5-|


|-------------------------------------------------------| x3
|-------------------------------------------------------|
|-------------------------------------------------------|
|-------------------------------------------------------|
|-------------------------------------------------------|
|--5h7-7-7-7-5--5--h7-7-7-7-5----5h7-7-7-5--5h7-7-7-7-5-|

|-------------------------------|
|-------------------------------|
|-------------------------------|
|-------------------------------|
|-------------------------------|
|--5h7-7-7-7-5--5--h7-7-7-7-5---|

Chorus 3
|---------------------------------------| x3
|---------------------------------------|
|---------------------------------------|
|-0-0-0-0-2-2-2-5-5-5-9p7-7-7-7-7-7h9-9-|
|-0-0-0-0-2-2-2-5-5-5-5-5-5-5-5-5-5-5-5-|
|-0-0-0-0-2-2-2-5-5-5-5-5-5-5-5-5-5-5-5-|

|----------------------|
|----------------------|
|----------------------|
|-0-0-0-0-2-2-2-5~-----|
|-0-0-0-0-2-2-2-5~-----|
|-0-0-0-0-2-2-2-5~-----|

|-------------------| x4
|-----3-------3-----|
|-----2-------2--7--|
|---0-------0----7--|
|----------------5--|
|-0-----0-2---------|

Thanks to muzza j!
Tap to rate this tab
# A B C D E F G H I J K L M N O P Q R S T U V W X Y Z