Song name
# A B C D E F G H I J K L M N O P Q R S T U V W X Y Z

Limp Bizkit - No Control tab

 "No Control" by Limp Bizkit,
 from "Significant Demo in Hell"

 tabbed by MafiaMaster (bourrindercii@gmail.com)


tuning : low to high: C# F# B E G# C# (standard Wes Borland)

Intro #1 (clean)

-----------------------|
-----------------------|
-----------------------|
-----------------------|
-----------------------|
-0-0-0-0--0-0-0-0--0-0-| x3

Intro #2 (heavy distortion)

----------          -----------|
----------          -----------|
----------          -----------|
--/4/5/4-4          -------4-4-|
--/4/5/4-4          -------4-4-|
-0/2/3/2-2 x9  then -0-(0)-2-2-|

play Intro #2 a second time


Verse #1 (clean, delay)


---------------------|
---------------------|
---------------------|
-8-8-8-8-8-8-8-8-7-7-| x2
---------------------|
---------------------|

--------------------------------------------------|
--------------------------------------------------|
-12-14-14-15-14-14~~17-15-15-12-14-14-15-14-14~~--| x1
--------------------------------------------------|
--------------------------------------------------|
--------------------------------------------------|

---------------------|
---------------------|
---------------------|
-8-8-8-8-8-8-8-8-7-7-| x2
---------------------|
---------------------|

--------|
--------|
-16-15--| x1
--------|
--------|
--------|

---------------------------------|
---------------------------------|
---------------------------------|
-10-8-7-7~-5-10-7~7-7-7-7-5-10-7-| x2
---------------------------------|
---------------------------------|


Chorus

----------          -----------|
----------          -----------|
----------          -----------|
--/4/5/4-4          -------4-4-|
--/4/5/4-4          -------4-4-|
-0/2/3/2-2 x9  then -0-(0)-2-2-|


Verse #2

---------------------|
---------------------|
---------------------|
-8-8-8-8-8-8-8-8-7-7-| x2
---------------------|
---------------------|

--------|
--------|
-16-15--| x1
--------|
--------|
--------|

---------------------------------|
---------------------------------|
---------------------------------|
-10-8-7-7~-5-10-7~7-7-7-7-5-10-7-| x2
---------------------------------|
---------------------------------|

------------------------------------|
------------------------------------|
-0-2-2-3-2-2~~-5-3-3-0-2-2-3-2-2~~--| x2
------------------------------------|
------------------------------------|
------------------------------------|
(same as in verse 1, just down an octave)


Chorus

----------          -----------|
----------          -----------|
----------          -----------|
--/4/5/4-4          -------4-4-|
--/4/5/4-4          -------4-4-|
-0/2/3/2-2 x9  then -0-(0)-2-2-|


Bridge

--------------|
--------------|
--------------|
-8-9-9--3-3-4-| repeat and play louder and louder
--------------|
--------------|


Chorus


-----
-----
-----
-4-4-
-4-4-
-2-2- x2

-----------|
-----------|
-----------|
--/4/5/4-4-|
--/4/5/4-4-|
-0/2/3/2-2 x9


-----
-----
-----
-4-4-
-4-4-
-2-2- x2


Final Verse

->do some effetcs with delay and palm muted notes, then :

(delay)
---------------------------------|
---------------------------------|
---------------------------------|
-10-8-7-7~-5-10-7~7-7-7-7-5-10-7-| x2
---------------------------------|
---------------------------------|

(wha-wha, i think...)
--------------------------------------------------|
--------------------------------------------------|
-12-14-14-15-14-14~~17-15-15-12-14-14-15-14-14~~--| x1
--------------------------------------------------|
--------------------------------------------------|
--------------------------------------------------|

------------------------------------|
------------------------------------|
-0-2-2-3-2-2~~-5-3-3-0-2-2-3-2-2~~--| x2
------------------------------------|
------------------------------------|
------------------------------------|
Tap to rate this tab
 
# A B C D E F G H I J K L M N O P Q R S T U V W X Y Z