Song name
# A B C D E F G H I J K L M N O P Q R S T U V W X Y Z

Limp Bizkit - Itll Be Ok tab

e-----------------------------------------------------------------|
b--------------------------------3--3-3-3p2--2--------------------|
g-----0-------0-------4---4--4-4----------------------------------|
d---4---4---4---4-------------------------------------------------|
a-----------------------------------------------------------------|
e-0-------0--------3----3-----------------------------------------|
4X

e-----------------------------------------------------------------|
b-----8b-------8b----------11b----------11b-----------------------|
g---9----9---9----9-----12-----12----12-----12--------------------|
d-----------------------------------------------------------------|
a-7--------7---------10-----------10------------------------------|
e-----------------------------------------------------------------|
4X
e-----------------------------------------------------------------|
b--------------------------------3--3-3-3p2--2--------------------|
g-----0-------0-------4---4--4-4----------------------------------|
d---4---4---4---4-------------------------------------------------|
a-----------------------------------------------------------------|
e-0-------0--------3----3-----------------------------------------|
4X
e-----------------------------------------------------------------|
b-----8b-------8b----------11b----------11b--13p11----------------|
g---9----9---9----9-----12-----12----12---------------------------|
d-----------------------------------------------------------------|
a-7--------7---------10-----------10------------------------------|
e-----------------------------------------------------------------|
4X
e-----------------------------------------------------------------|
b-----------------------------------------------------------------|
g-----------------------------------------------------------------|
d-2--2----2-0----------------2--2----2-0--------------------------|
a-2--2----------2--2--x-3--x-2--2----------2--2--x-3--x-----------|
e-0--0--------3-0--0--x-1--x-0--0--------3-0--0--x-1--x-----------|

11~12X
e-----------------------------------------------------------------|
b--------------------------------3--3-3-3p2--2--------------------|
g-----0-------0-------4---4--4-4----------------------------------|
d---4---4---4---4-------------------------------------------------|
a-----------------------------------------------------------------|
e-0-------0--------3----3-----------------------------------------|
4X
e-----------------------------------------------------------------|
b-----8b-------8b----------11b----------11b--13p11----------------|
g---9----9---9----9-----12-----12----12---------------------------|
d-----------------------------------------------------------------|
a-7--------7---------10-----------10------------------------------|
e-----------------------------------------------------------------|
4X

e-----------------------------------------------------------------|
b-----------------------------------------------------------------|
g-----------------------------------------------------------------|
d-2--2----2-0----------------2--2----2-0--------------------------|
a-2--2----------2--2--x-3--x-2--2----------2--2--x-3--x-----------|
e-0--0--------3-0--0--x-1--x-0--0--------3-0--0--x-1--x-----------|
11~12X

e------------------------------------------------17--19--22p19----|
b------------------------------------15--14--17-------------------|
g----13----14p13----13-----------16-------------------------------|
d-----------------------------------------------------------------|
a-----------------------------------------------------------------|
e-12----12-------12----12-12-15-----------------------------------|
4X

e-----------------------------------------------------------------|
b-----------------------------------------------------------------|
g-------13------------13-------16---16--16-19---18-18--18--18-----|
d-----------------------------------------------------------------|
a-------11------------11-------14---14--14-17---16-16--16--16-----|
e-0---0-----0-0---0-0-----0-0-------------------------------------|
4X

e-----------------------------------------------------------------|
b-----------------------------------------------------------------|
g-----------------------------------------------------------------|
d-2--2----2-0----------------2--2----2-0--------------------------|
a-2--2----------2--2--x-3--x-2--2----------2--2--x-3--x-----------|
e-0--0--------3-0--0--x-1--x-0--0--------3-0--0--x-1--x-----------|
12X

e-----------------------------------------------------------------|
b-----------------------------------------------------------------|
g-----------------------------------------------------------------|
d-2--2----2-0----------------2--2----2-0--------------------------|
a-2--2----------2--2--x-3--x-2--2----------2--2--x-3--x-----------|
e-0--0--------3-0--0--x-1--x-0--0--------3-0--0--x-1--x-----------|
4X

e-----------------------------------------------------------------|
b--------------------------------3--3-3-3p2--2--------------------|
g-----0-------0-------4---4--4-4----------------------------------|
d---4---4---4---4-------------------------------------------------|
a-----------------------------------------------------------------|
e-0-------0--------3----3-----------------------------------------|
Tap to rate this tab
 
# A B C D E F G H I J K L M N O P Q R S T U V W X Y Z