Song name
# A B C D E F G H I J K L M N O P Q R S T U V W X Y Z

Limp Bizkit - Mission Impossible 2 tab

Tuning High to Low: E B G D A e
Tabbed by stewey

E:------------------------------------------|
B:------------------------------------------|
G:------------------------------------------|
D:-3--3--3--3--3--6--8--3--3--3--3--3--1--2-|
A:-3--3--3--3--3--6--8--3--3--3--3--3--1--2-|
e:-3--3--3--3--3--6--8--3--3--3--3--3--1--2-|

E:-------------------------------|
B:-------------------------------|
G:-----------0-2-0---------------|
D:-3-3-3-3-3-------3-3-3-3-3-1-2-|
A:-------------------------------|
e:-------------------------------|

E:-15-12----15-12----15-12----15-12----------|
B:-------12-------11-------10-------11-11-10-|
G:-------------------------------------------|
D:-------------------------------------------|
A:-------------------------------------------|
D:-------------------------------------------|

E:-----------------------------------------|
B:-----------------------------------------|
G:-----------------------------------------|
D:-----------------------------------------|
A:-----------------------------------------|
D:-1-3-1-3-1-3-1-3-6-8-1-3-1-3-1-3-1-3-1-2-|
Tap to rate this tab
# A B C D E F G H I J K L M N O P Q R S T U V W X Y Z