Song name
# A B C D E F G H I J K L M N O P Q R S T U V W X Y Z

Limp Bizkit - Hold On tab

Artist:Limp Bizkit
Album:Chocolate Starfish And Hot Dog Flavoured Water
Song:Hold On
A Tab By William Soans(snoopdog778@hotmail.com)

Many of the tabs are not that aqurate.Well here it is........
Tuning:E A D G B E

e-------------------------------------|
b-------------------------------------|
g-------------------------------------|
d--------6----6------6------6-6h7h6---|
a----------------4------2-------------|
e-----4----2--------------------------|

e-------------------------------------|
b-------------------------------------|
g-------------------------------------|
d--------6----6------6------6-6h4h6---|
a----------------4------2-------------|
e-----4----2--------------------------|

If it needs to have any changes go ahead man..cuase there are some other parts but i 
seem to get them right.
I love this song......I think its the best in the album
Play and ENJOY
Tap to rate this tab
 
# A B C D E F G H I J K L M N O P Q R S T U V W X Y Z