Song name
# A B C D E F G H I J K L M N O P Q R S T U V W X Y Z

Limp Bizkit - Take A Look Around tab

---------------------------------------
---------------------------------------
---------------------------------------
---------------------------------------
---------------------------------------
--12-12-12-12-14-15---12-12-12-12-10-11

--17-14----17-14----17-14----17-14------
--------14------------------------------
-----------------17-------16-------15-14
----------------------------------------
----------------------------------------         Listen to it and you'll get it 
----------------------------------------

----------------------------------------
----------------------------------------
----------------------------------------
----------------------------------------
------------------0-3-------------------
--0-2-0-2-0-2-0-2----0-2-0-2-0-2-0-2-0-1
Tap to rate this tab
 
# A B C D E F G H I J K L M N O P Q R S T U V W X Y Z