Song name
# A B C D E F G H I J K L M N O P Q R S T U V W X Y Z

Limp Bizkit - Re-arranged tab

----------------------------------------------------------------------------
     Artist- Limp Bizkit, Song- Re-arranged, Album- Significant Other
----------------------------------------------------------------------------

i know the intro riff is played on a bass but i converted it to guitar, it still sounds
good, i did it like this because the guitar is not played  much thoughout the song. I
this song is really old
but it still rocks. Im new to the guitar and this is my first tab, i chose it because 
not to hard

Tabbed by Stevenrock aka dragon 5564 (youtube channel)
------------------------------------------------------
(standard tuning) EBGDAE


intro
-----
|---2---4--------------------------------------------------------------------|
|----------4----2------2-(h)-3-(h)-4-(h)-------1----2-----4------------------|
|------------------------------------------------------------2----4----------| x4
|----------------------------------------------------------------------------|
|----------------------------------------------------------------------------|
|----------------------------------------------------------------------------|

intro riff keeps playing in the background
------------------------------------------

verse 1
-------
repeat this about 10 time, its pretty repetitive
-------------------------------------------------

|---------------------------------------------------------------------------|
|---------------------------------------------------------------------------|
|--------12-12-12-12-12-12------14---12-12-12-12-12-12------13------| x10---|
|---------------------------------------------------------------------------|
|---------------------------------------------------------------------------|
|---------------------------------------------------------------------------|


|--------------------------------------------------------------------------|
|--------------------------------------------------------------------------|
|------12---13---14----------------12---13---14----------------------------|  x4
|-----------------------13-(b)---------------------------14-(b)------------|
|--------------------------------------------------------------------------|
|--------------------------------------------------------------------------|

bass only for a couple of seconds
-------------------------------------

verse 2
-------

|---2---4-------------------------------------------------------------|
|----------4----2------2-(h)-3-(h)-4-(h)-------1------2-----4---------|
|--------------------------------------------------------------2----4-| x2
|---------------------------------------------------------------------|
|---------------------------------------------------------------------|
|---------------------------------------------------------------------|

intro riff keeps playing in the background
------------------------------------------

|----------------------------------------------------------------------------|
|----------------------------------------------------------------------------|
|--------12-12-12-12-12-12------14---12-12-12-12-12-12------13-------|x10----|
|----------------------------------------------------------------------------|
|----------------------------------------------------------------------------|
|----------------------------------------------------------------------------|


|----------------------------------------------------------------------|
|----------------------------------------------------------------------|
|------12---13---14----------------12---13---14------------------------|x4
|-----------------------13-(b)---------------------------14-(b)--------|
|----------------------------------------------------------------------|
|----------------------------------------------------------------------|

bass only
---------

|---------------------------------------------------------------------------|
|---------------------------------------------------------------------------|
|---------------------------------------------------------------------------|x4
|---------------------------------------------------------------------------|
|----11--12--------11--12------------11---12------------11--12--------------|
|-------------11(b)-------11(b)----------------13(b)--------------14-((b)---|

put on some destortion here
----------------------------------
verse 3
---------

|--3333333333333-----7777777777777-----9-9-9-9-9-9-9-9-9-9-9-9-9-9-----|
|--4444444444444-----8888888888888-----10-10-10-10-10-10-10-10-10-10---|
|--3333333333333-----7777777777777-----9-9-9-9-9-9-9-9-9-9-9-9-9-9-----|  x4
|----------------------------------------------------------------------|
|----------------------------------------------------------------------|
|----------------------------------------------------------------------|

|-------99999--10------99999--10----99999-10-----------------------------|
|--------------11-------------11----------11-----------------------------|
|------------------------------------------------------------------------|
|--------------------------------------------------------12----13--------|
|------------------------------------------------------------------------|
|------------------------------------------------------------------------|

|---2---4----------------------------------------------------------------|
|----------4----2-----2-(h)-3-(h)-4-(h)------1------2-----4--------------|
|----------------------------------------------------------------2-----4-|
|------------------------------------------------------------------------|x2
|------------------------------------------------------------------------|
|------------------------------------------------------------------------|

again intro riff continues
--------------------------------------------------------------------|
|-------------------------------------------------------------------|
|-------------------------------------------------------------------|
|---12-12-12-12-12-12------14---12-12-12-12-12-12------13-----------|
|-------------------------------------------------------------------|x4
|-------------------------------------------------------------------|
|-------------------------------------------------------------------|

outro it just comes to a slow ending
------------------------------------------

|------------------------------------------------------------------------|
|------------------------------------------------------------------------|
|------------------------------------------------------------------------|
|---13------13------13------13------13------13------13-------13----------|
|------------------------------------------------------------------------|
|------------------------------------------------------------------------|

(h)=hammer on
(b)= bend
/=slide up
*=palm mute
x=mute note

That is it, hope you like it,* please rate : )
Tap to rate this tab
# A B C D E F G H I J K L M N O P Q R S T U V W X Y Z