Song name
# A B C D E F G H I J K L M N O P Q R S T U V W X Y Z

Limp Bizkit - My Generation tab

tune to E flat and dropped  D type

-----------------------------------------------------------
-----------------------------------------------------------
-----------------------------------------------------------
0-0-0--0-0-0---3-2-0-3-0-3--0-0-0--0-0-0---3-2-0-3-0-3-----
0-0-0--0-0-0---3-2-0-3-0-3--0-0-0--0-0-0---3-2-0-3-0-3-----
0-0-0--0-0-0---3-2-0-3-0-3--0-0-0--0-0-0---3-2-0-3-0-3-----


verse
-----------------------------------------------------------
-----------------------------------------------------------
------11-11-------11-11--------11-------------------------- pinch harmonics
-0-0--------0-0-----------0-0------------------------------
-0-0--------0-0-----------0-0------------------------------
-0-0--------0-0-----------0-0------------------------------

palm mute the 0's


Bridge
-----------------------------------------------------------
-----------------------------------------------------------
-----------------------------------------------------------
-3-3-3--3-3-3-3--------------------------------------------
-3-3-3--3-3-3-3--------------------------------------------
-3-3-3--3-3-3-3--------------------------------------------


 Chorus

-----------------------------------------------------------
-----------------------------------------------------------
-----------------------------------------------------------
0-0-0--0-0-0---3-2-0-3-0-3--0-0-0--0-0-0---3-2-0-3-0-3-----
0-0-0--0-0-0---3-2-0-3-0-3--0-0-0--0-0-0---3-2-0-3-0-3-----
0-0-0--0-0-0---3-2-0-3-0-3--0-0-0--0-0-0---3-2-0-3-0-3-----

verse
-----------------------------------------------------------
-----------------------------------------------------------
------11-11-------11-11--------11-------------------------- pinch harmonics
-0-0--------0-0-----------0-0------------------------------
-0-0--------0-0-----------0-0------------------------------
-0-0--------0-0-----------0-0------------------------------

 Chorus
-----------------------------------------------------------
-----------------------------------------------------------
-----------------------------------------------------------
0-0-0--0-0-0---3-2-0-3-0-3--0-0-0--0-0-0---3-2-0-3-0-3-----
0-0-0--0-0-0---3-2-0-3-0-3--0-0-0--0-0-0---3-2-0-3-0-3-----
0-0-0--0-0-0---3-2-0-3-0-3--0-0-0--0-0-0---3-2-0-3-0-3-----

-----------------------------------------------------------
-----------------------------------------------------------
-----------------------------------------------------------
-----------------------------------------------------------
--3-4--------------------------------------------------------
--3-4--------------------------------------------------------
--3-4--------------------------------------------------------


-----------------------------------------------------------
-----------------------------------------------------------
-----------------------------------------------------------
-----------------------------------------------------------
-----3h5------3--------------------------------------------
-0-0-----0-0-3-3-0-1---------------------------------------

until fred say's "well i do, well i do, FLY"
then u just play the same but with distortion but with a few more 0 in in

 Bridge
-----------------------------------------------------------
-----------------------------------------------------------
-----------------------------------------------------------
-3-3-3--3-3-3-3--------------------------------------------
-3-3-3--3-3-3-3--------------------------------------------
-3-3-3--3-3-3-3--------------------------------------------

 Chorus
-----------------------------------------------------------
-----------------------------------------------------------
-----------------------------------------------------------
0-0-0--0-0-0---3-2-0-3-0-3--0-0-0--0-0-0---3-2-0-3-0-3-----
0-0-0--0-0-0---3-2-0-3-0-3--0-0-0--0-0-0---3-2-0-3-0-3-----
0-0-0--0-0-0---3-2-0-3-0-3--0-0-0--0-0-0---3-2-0-3-0-3-----


outro
-----------------------------------------------------------
----------------------------------------------------------- 
-----------------------------------------------------------     x3
-3-0-0-3-0-3-----------------------------------------------
-3-0-0-3-0-3-----------------------------------------------
-3-0-0-3-0-3-----------------------------------------------


any questions and body who thinks i'm wrong e-mail me at christ_redding@yahoo.com or jimbo_jones_692002@yahoo.com
Tap to rate this tab
# A B C D E F G H I J K L M N O P Q R S T U V W X Y Z