Song name
# A B C D E F G H I J K L M N O P Q R S T U V W X Y Z

Limp Bizkit - Re-arranged tab

Limp Bizkit--Band
Re-arranged--Song
Significant Other--Album
Wes Borland--Guitarist

Intro:
C#---------------------------------------------------------------------------------------|
F#---------------------------------------------------------------------------------------|
B----------------------------------------------------------------------------------------|
E----------------------------------------------------------------------------------------|
G#---------------------------------------------------------------------------7-----------|
C#-----------7-------5----------------5p7p5--4-------------4p5p4--0----7-----------------|
C#---0----7------------------------------------------------------------------------------|


Verse:
C#---3--0--------------------3--0--------------------------------------------------------|
F#---3--0--------------------3--0--------------------------------------------------------|
B----------------------------------------------------------------------------------------|
E----------------------------------------------------------------------------------------|
G#-------14------14------14------14------14------14------14------14----------------------|
C#---------------------------------------------------------------------------------------|
C#---12------12------12------12------12------12------12------12--------------------------|
(lately iīve been skaeptical...)  repeat it all the time.

C#---7-----------------------7--0------------8-------------------------------------------|
F#---7-----------------------7--0------------8-------------------------------------------|
B----------------------------------------------------------------------------------------|
E----------------------------------------------------------------------------------------|
G#-------14------14------14------14------14------14------14------14----------------------|
C#---------------------------------------------------------------------------------------|
C#---12------12------12------12------12------12------12------12--------------------------|
(...you donīt understand when...)


Chours:
C#---------------------------------------------------------------------------------------|
F#---------------------------------------------------------------------------------------|
B----------------------------------------------------------------------------------------|
E----------------------------------------------------------------------------------------|
G#-------14---------------17---------------14--------------------------------------------|
C#---------------------------------------------------------------------------------------|
C#---12------12---3---15------15---3---12------12----------------------------------------|

Bridge:
C#---------------------------------------------------------------------------------------|
F#---------------------------------------------------------------------------------------|
B----------------------------------------------------------------------------------------|
E----------------------------------------------------------------------------------------|
G#---------------------------------------------------------------------------------------|
C#---------------------------------------------------------------------------------------|
C#--12-----------------------------------------------------------------------------------|
(...Good for me._____)


C#------------|------------|-------------------------------------------------------------|
F#------------|------------|--------------------------------0----------------------------|
B-------------|------------|-------------------------------------------------------------|
E-------------|11p12-------|----------12----------|-11--12-------------------------------|
G#------------|------------|-------------------------------------------------------------|
C#------------|------------|-------------------------------------------------------------|
C#------------|------------|-------------------------------------------------------------|
(Thank god itīs over)


C#--------------------------------------------------------------------|------------------|
F#------------------0-------------------------------------------------|------------------|
B----------------0---------------15--------------------19----------20-|------------------|
E---------11p12-------------------------------------------------------|------------------|
G#------------------------14p12------------------16---------16p17-----|------------------|
C#--------------------------------------------------------------------|------------------|
C#--------------------------------------------------------------------|------------------|
                                                                       (you make believe)


C#----------------|----------------------|-----------------------------------------------|
F#----------------|-12-------------------|--------------------0--------------------------|
B-----------------|-15-------------(15)--|--------------0--------------------------------|
E-----------------|----------------------|-------11p12-----------------------------------|
G#----------------|----------------------|-----------------------------------------------|
C#----------------|----------------------|-----------------------------------------------|
C#----------------|----------------------|-----------------------------------------------|


C#--------------------------------|---------------------|--------------------------------|
F#--------------------------------|---------------------|--------------------------------|
B----------------17----17---------|--17----------17-----|----------------15--------------|
E---------------------------------|---------------------|--------------------------------|
G#---14----14------------------14-|--------14-----------|--12----------------------16----|
C#--------------------------------|---------------------|--------------------------------|
C#--------------------------------|---------------------|--------------------------------|
                                (that nothing is wrong)

C#--------------------|---------------------------|--------------------------------------|
F#-----0--------------|---------------------------|--------------------------------------|
B---------------------|-----------------10----8---|--------------------------------------|
E--11p12--------------|---------------------------|--------------------------------------|
G#--------------------|---------------------------|--------------------------------------|
C#--------------------|---------------------------|--------------------------------------|
C#--------------------|---------------------------|--------------------------------------|

C#--------------------------------------|---------------------|--------------------------|
F#--------------------------------------|---------------------|--------------------------|
B---19p20--------20---------------------|------------------17-|------------------17------|
E---------------------------------------|--14-----------------|--14----------------------|
G#(16)p17-------------------------------|---------------------|--------------------------|
C#--------------------------------------|---------------------|--------------------------|
C#--------------------------------------|---------------------|--------------------------|
                   (and you make believe)


C#---------------------------|--------------|--------------------------------------------|
F#---------------------------|--------------|--0-----------------------------------------|
B-----7p0--------------------|--0-----------|--------------------------------------------|
E----------------------------|--11p12-------|--------------------------------------------|
G#---------------------------|--------------|--------------------------------------------|
C#---------------------------|--------------|--------------------------------------------|
C#---------------------------|--------------|--------------------------------------------|


C#-------------------------|--------------------------------------------|----------------|
F#------------15-----------|---------19----19-------------20------------|----------------|
B--------------------------|--------------------------------------------|----------------|
E--------------------------|--------------------------------------------|----------------|
G#----12----------------12-|--16----------------16p17-------------------|----------------|
C#-------------------------|--------------------------------------------|----------------|
C#-------------------------|--------------------------------------------|----------------|
   (dyin_______)                                       (You make believe)


C#-------------------------|--------------------------------------------|----------------|
F#-------------------------|--------------------------------------------|----------------|
B---19p20------------------|---7p8--------------------------------------|----------------|
E--------------------------|--------------------------------------------|----------------|
G#-------------------------|--------------------------------------------|----------------|
C#-------------------------|--------------------------------------------|----------------|
C#-------------------------|--------------------------------------------|----------------|


Heavy Part:
C#-------------------------|-------------------------------------------------------------|
F#-------------------------|-------------------------------------------------------------|
B--------------------------|-17---17-17-17-17-----17-17-17-17-17-17----------------------|
E--------------------------|-------------------------------------------------------------|
G#-------------------------|-14---14-14-14-14-----14-14-14-14-14-14----------------------|
C#-------------------------|-------------------------------------------------------------|
C#-------------------------|--0----0--0--0--0-----0--0--0--0---0--0----------------------|
(...dyin on me...)


C#------------------------------------------|--------------------------------------------|
F#------------------------------------------|--------------------------------------------|
B--17----17-17-17-17----17-17-17-17---17-17-|--------------------------------------------|
E-------------------------------------------|--------------------------------------------|
G#-14----14-14-14-14----14-14-14-14---14-14-|-12--12---12--12---12--12--12--12-----------|
C#------------------------------------------|--------------------------------------------|
C#--0-----0--0--0--0-----0--0--0--0----0--0-|-10--10---10--10---10--10--10--10-----------|
  (you think that)                             (ev - ry -


C#-----------------------------------------|---------------------------------------------|
F#-----------------------------------------|---------------------------------------------|
B------------------------------------------|-17---17-17-17-17----17-17-17-17--17-17------|
E------------------------------------------|---------------------------------------------|
G#--4----4--4--4--4p5-------5--5--5--5-----|-14---14-14-14-14----14-14-14-14--14-14------|
C#-----------------------------------------|---------------------------------------------|
C#--2----2--2--2--2p3-------3--3--3--3---0-|--0----0--0--0--0-----0--0--0--0---0--0------|
  - bod - y ___________    is the same__)

C#----------------------------------------|----------------------------------------------|
F#----------------------------------------|----------------------------------------------|
B--17---17-17-17-17----17-17-17-17--17-17-|-17---17-17-17-17----17-17-17-17--17-17-------|
E-----------------------------------------|----------------------------------------------|
G#-14---14-14-14-14----14-14-14-14--14-14-|-14---14-14-14-14----14-14-14-14--14-14-------|
C#----------------------------------------|----------------------------------------------|
C#--0----0--0--0--0-----0--0--0--0---0--0-|--0----0--0--0--0-----0--0--0--0---0--0-------|
                                                              (I dont think that...


C#-----------------------------------|---------------------------------------------------|
F#-----------------------------------|---------------------------------------------------|
B------------------------------------|---------------------------------------------------|
E------------------------------------|---------------------------------------------------|
G#--12---12-----12--12----12--12--12-|--4----4--4--4--4p5-----5--5--5--5-----------------|
C#-----------------------------------|---------------------------------------------------|
C#--10---10-----10--10----10--10--10-|--2----2--2--2--2p3-----3--3--3--3---0-------------|
    an        -        y        -       bod        -         y ______            is like


C#----------------------------------------|------------------------------------------------|
F#----------------------------------------|------------------------------------------------|
B--17---17-17-17-17----17-17-17-17--17-17-|------------------------------------------------|
E-----------------------------------------|-16-------16-------16p17------17----17---17p16--|
G#-14---14-14-14-14----14-14-14-14--14-14-|------------------------------------------------|
C#----------------------------------------|-14-------14-------14p15------15----15---15p14--|
C#--0----0--0--0--0-----0--0--0--0---0--0-|--0--------0--------0----------0-----0----0-----|
    you.)


C#------------------------------------|--------------------------------------------------|
F#------------------------------------|--------------------------------------------------|
B-------------------------------------|--------------------------------------------------|
E-------------------------------------|--------------------------------------------------|
G#----12---12---12-12----12--12-12----|--4---4--4--4--4p5---5--5--5--5-------------------|
C#------------------------------------|--------------------------------------------------|
C#----10---10---10-10----10--10-10----|--2---2--2--2--2p3---3--3--3--3---0---------------|

C#----------------------------------------|----------------------------------------------|
F#----------------------------------------|----------------------------------------------|
B--17---17-17-17-17----17-17-17-17--17-17-|----------------------------------------------|
E-----------------------------------------|--16---16---16p17--17---17--17p16-------------|
G#-14---14-14-14-14----14-14-14-14--14-14-|----------------------------------------------|
C#----------------------------------------|--14---14---14p15--14---15--15p14-------------|
C#--0----0--0--0--0-----0--0--0--0---0--0-|---0----0----0------0----0---0----------------|

C#--------------------------------|------------------------------------------------------|
F#--------------------------------|------------------------------------------------------|
B---------------------------------|------------------------------------------------------|
E---------------------------------|------------------------------------------------------|
G#--12---12---12-12----12--12-12--|--4-----4--4--4--4p5----5--5--5--5--------------------|
C#--------------------------------|------------------------------------------------------|
C#--10---10---10-10----10--10-10--|--2-----2--2--2--2p3----3--3--3--3---0----------------|

C#-------------------|------------------|------------------------------------------------|
F#-------------------|------------------|------------------------------------------------|
B---17--17----17-----|------------------|------------------------------------------------|
E--------------------|-16---16----16p17-|-17p16----16------------------------------------|
G#--14--14----14-----|------------------|------------------------------------------------|
C#-------------------|-14---14----14p15-|-15p14----14------------------------------------|
C#---0---0-----0-----|--0----0-----0----|--0--------0------------------------------------|

C#------------------|----------|--------|--------------|---------------------------------|
F#------------------|----------|--------|--------------|---------------------------------|
B-----16---16----16-|-16-------|--------|--------------|---------------------------------|
E-------------------|----------|--------|--------------|---------------------------------|
G#----14---14----14-|-14-------|--------|--------------|---------------------------------|
C#------------------|----------|--------|--------------|---------------------------------|
C#-----0----0-----0-|--0-------|--------|--------------|---------------------------------|

C#----3p0--------------3p0---------------------------|
F#----3p0--------------3p0---------------------------|
B----------------------------------------------------|
E----------------------------------------------------|
G#------14----14----14----14----14----14----14----14-|
C#---------------------------------------------------|
C#---12----12----12----12----12----12----12----12----|
    PLAY TI 4 TIMES!!!!!!!!!!!

C#---3-----------------------------------------------|
F#---3-----------------------------------------------|
B----------------------------------------------------|
E----------------------------------------------------|
G#------14----14----14----14----14----14----14----14-|
C#---------------------------------------------------|
C#---12----12----12----12----12----12----12----12----|
    REPEAT THIS!!!!!!!!!!!!!!!!

C#----------------------------|------------------|-----------------------------------|-----|
F#----------------------------|------------------|-----------------------------------|-----|
B-----------------------------|------------------|-----------------------------------|-----|
E-----------------------------|------------------|-----------------------------------|-----|
G#------14----14----------14--|------------14----|-----14--------------------------14|-----|
C#----------------------------|------------------|-----------------------------------|-----|
C#---12----12----12----12-----|---------12-------|--12----12----12----12--------12---|-12--|
   REPEAT THIS, TOO!!!!!!!!!!!!!!!!!!!!
Tap to rate this tab
# A B C D E F G H I J K L M N O P Q R S T U V W X Y Z