Song name
# A B C D E F G H I J K L M N O P Q R S T U V W X Y Z

Limp Bizkit - Just Like This tab

Limp Bizkit - Just Like This
Tabbed by: Xavieres
Tuning: Drop C# (C#,G#,E,B,F#,c#)

Chorus 1: x2
|-----------------------------------------|
|-----------------------------------------|
|-9----------------------9----------------|
|-----------------------------------------|
|-----------------------------------------|
|----0--4p0-0-3-0---3-0-----0--4p0-0-3----|

Chorus 2: x4
|-----------------------------------------|
|-----------------------------------------|
|-9----------------------9----------------|
|-----------------------------------------|
|----0--4p0-0-3-0---3-0-----0--4p0-0-3----|
|----0--4p0-0-3-0---3-0-----0--4p0-0-3----|

Guitar mute. Then

Verse: x8
|--------------|
|--------------|
|--------------|
|--------------|
|-----11--10---|
|-12-----------|


Chorus 1: x2
|-----------------------------------------|
|-----------------------------------------|
|-9----------------------9----------------|
|-----------------------------------------|
|-----------------------------------------|
|----0--4p0-0-3-0---3-0-----0--4p0-0-3----|


Chorus 2: x2
|-----------------------------------------|
|-----------------------------------------|
|-9----------------------9----------------|
|-----------------------------------------|
|----0--4p0-0-3-0---3-0-----0--4p0-0-3----|
|----0--4p0-0-3-0---3-0-----0--4p0-0-3----|

Guitar mute. Then

Verse: x8
|--------------|
|--------------|
|--------------|
|--------------|
|-----11--10---|
|-0------------|


Chorus 1: x2
|-----------------------------------------|
|-----------------------------------------|
|-9----------------------9----------------|
|-----------------------------------------|
|-----------------------------------------|
|----0--4p0-0-3-0---3-0-----0--4p0-0-3----|


Chorus 2: x4
|-----------------------------------------|
|-----------------------------------------|
|-9----------------------9----------------|
|-----------------------------------------|
|----0--4p0-0-3-0---3-0-----0--4p0-0-3----|
|----0--4p0-0-3-0---3-0-----0--4p0-0-3----|

Then: "Limp Bizkit is in the house, y'all...."
      "....Bring that beat back!"
Guitar mute. Then

Chorus 1: x2
|-----------------------------------------|
|-----------------------------------------|
|-9----------------------9----------------|
|-----------------------------------------|
|-----------------------------------------|
|----0--4p0-0-3-0---3-0-----0--4p0-0-3----|


Outro:
|------------------------------------12-|
|------------------------------10-14----|
|---------------------------------------|
|---------------------------------------|
|-0---4-3---0---4-3---0---4-3-----------|
|-0---4-3---0---4-3---0---4-3-----------|
Tap to rate this tab
 
# A B C D E F G H I J K L M N O P Q R S T U V W X Y Z