Song name
# A B C D E F G H I J K L M N O P Q R S T U V W X Y Z

Limp Bizkit - Walking Away tab

-------------------------------------------------------------------------------
			     Walking Away - Limp Bizkit
-------------------------------------------------------------------------------
Tabbed by: me
 It's my first tab, so don't be too rough :)

 e|---------------------------------------------------------------------|
 B|---------------------------------------------------------------------|
 G|-----4-4-2h4-4-2h4-4-------4-4-2h4-4-2h4-4--------4-4-2h4-4-2h4-4----|
 D|---------------------------------------------------------------------|
 A|---------------------------------------------------------------------|
 E|-0-0-------------------0-0--------------------3-3--------------------|

 e|---------------------------------------------------------------------|
 B|-------------3-------------------------------------------------------|
 G|-----4-4-2-4---------------------------------------------------------|
 D|---------------------------------------------------------------------|
 A|-0-0-----------------------------------------------------------------|
 E|---------------------------------------------------------------------|
Tap to rate this tab
 
# A B C D E F G H I J K L M N O P Q R S T U V W X Y Z