Limp Bizkit - Nataspin tab

Limp Bizkit - Nataspin (lead theme)

this is song:

http://www.youtube.com/watch?v=Wqmn6rwy4aw&p=F99B1209BB4564A2&playnext=1&index=20  

Guitar tuning: C# G# E B F# C#

0:30

C# |------------12--10------------| C# |------------12--10------------|
G# |---10--12------------14--15---| G# |---10--12------------14--15---|
E  |------------------------------| E  |------------------------------|
B  |------------------------------| B  |------------------------------|
F# |------------------------------| F# |------------------------------|
C# |------------------------------| C# |------------------------------| 

0:40

C# |-----------------------12-10--------------------------------------| 
G# |--------10--12--10-12---------10-12---14-14-14--15--10-12---------| 
E  |------------------------------------------------------------------| 
B  |------------------------------------------------------------------| 
F# |------------------------------------------------------------------| 
C# |------------------------------------------------------------------| 

0:45 - 1:18 (7x)

C# |--------------------12-10-----------------------------------------| 
G# |-------------10-12---------10-12---14-14-14--15--10-12------------| 
E  |------------------------------------------------------------------| 
B  |------------------------------------------------------------------| 
F# |------------------------------------------------------------------| 
C# |------------------------------------------------------------------| 

1:18

C# |---------12-10------------------------|-----------12--10----------| 
G# |--10-12---------10-12---14-14-14--15--|--10--12------------14--15-| 
E  |--------------------------------------|---------------------------| 
B  |--------------------------------------|---------------------------| 
F# |--------------------------------------|---------------------------| 
C# |--------------------------------------|---------------------------|
Tap to rate this tab
 
# A B C D E F G H I J K L M N O P Q R S T U V W X Y Z