Song name
# A B C D E F G H I J K L M N O P Q R S T U V W X Y Z

Limp Bizkit - Angels tab

Limp Bizkit - Angels(Demo)
http://www.youtube.com/watch?v=YmEI62reClA


Tuning:Wes Borland Standard(C# F# B E G# C#)\one and a half step down.


Main riff-Clean(repeat as necessary):

C#|----8---------------------------|
G#|9-----9---8---------------------|
 E|-------------8-8--5-5-6-8-6-5---|
 B|------------------------------6-|
F#|--------------------------------|
C#|--------------------------------|




Chorus?-Clean(Repeat as necessary)

C#|11-11-11-11-11-11-11-11-11-11-11-11-11-11-11-11-9-9-9-9-9-9-9-9-9-8-8-8-8---------|
G#|--------------------------------------------------------------------------9-9-9-9-|
 E|----------------------------------------------------------------------------------|
 B|----------------------------------------------------------------------------------|
F#|----------------------------------------------------------------------------------|
C#|----------------------------------------------------------------------------------|



Main riff w/Distortion(repeat as necessary):
you can try to play it as powerchords

C#|--------------------------------|
G#|--------------------------------|
 E|----5---------------------------|
 B|6-----6---5---------------------|
F#|-------------6-6--3-3-4-6-4-3---|
C#|------------------------------4-|




************************************

| /   slide up
| \   slide down
| h   hammer-on
| p   pull-off
| ~   vibrato
| +   harmonic
| x   Mute note
| b   Bend
| pb  Pre-bend
| br  Bend release
| pbr Pre-bend release
| brb Bend release bend

************************************
Tap to rate this tab
 
# A B C D E F G H I J K L M N O P Q R S T U V W X Y Z