Song name
# A B C D E F G H I J K L M N O P Q R S T U V W X Y Z

Limp Bizkit - Shotgun Rock Ship tab

	Limp Bizkit - Shotgun(Rock Ship) demo
http://www.youtube.com/watch?v=_lSXgxpVBsA

Tuning:Wes Borland Standard(C# F# B E G# C#)\one and a half step down.


Main Riff:
C#|----------------------------------------------------------------|
G#|----------------------------------------------------------------|
E |----------------------------------------------------------------|
B |5-x-5-x-5-5-x-5-5------5-x-5-x-5-5-x-5-5-----2-2-2-2-2-2-2-2-2-2|
F#|5-x-5-x-5-5-x-5-5-6----5-x-5-x-5-5-x-5-5-6---2-2-2-2-2-2-2-2-2-2|
C#|3-x-3-x-3-3-x-3-3-4----3-x-5-x-3-3-x-3-3-4---0-0-0-0-0-0-0-0-0-0|              
                     b                      b




Verse:

C#|----12-----------15-----------10----------8------|
G#|--12--12-------15--15-------10--10------8---8----|
E |9-------9---12-------12---7-------7---5------5---|
B |-------------------------------------------------|
F#|-------------------------------------------------|
C#|-------------------------------------------------|


Chorus is too distorted to figure.	
Tap to rate this tab
 
# A B C D E F G H I J K L M N O P Q R S T U V W X Y Z