Song name
# A B C D E F G H I J K L M N O P Q R S T U V W X Y Z

Limp Bizkit - Faith tab

SONG: Faith
BAND: Limp Bizkit
ALBUM: Three Dollar Bill Y'All (1997)

TUNING: Standard (E,A,D,G,F,E)

Intro, Verse 1 and Pre-Chorus are played in clean distortion.

-INTRO-
 E|---------------------------------------------------------------|
 F|---------------------------------------------------------------|
 G|---------------------------------------------------------------|
 D|-9-x-9-x-9-x-x-9-9-x-x-9-x-9-x-9-x-x-9-9-x-x-9-x-9-x-9-x-x-9-9-|
 A|-9-x-9-x-9-x-x-9-9-x-x-9-x-9-x-9-x-x-9-9-x-x-9-x-9-x-9-x-x-9-9-|
 E|-7-x-7-x-7-x-x-7-7-x-x-7-x-7-x-7-x-x-7-7-x-x-9-x-9-x-9-x-x-9-9-|

 E|---------------------------------------------------------------|
 F|---------------------------------------------------------------|
 G|---------------------------------------------------------------|
 D|-x-x-9-x-x-x-x-9-9---------------------------------------------|
 A|-x-x-9-x-x-x-x-9-9---------------------------------------------|
 E|-x-x-7-x-x-x-x-7-7---------------------------------------------|

-VERSE 1- Play it 2 times!
 E|---------------------------------------------------------------|
 F|---------------------------------------------------------------|
 G|---------------------------------------------------------------|
 D|-9-x-9-x-9-x-x-9-9-x-x-9-x-9-x-9-x-x-9-9-x-x-7-x-7-x-7-x-x-7-7-|
 A|-9-x-9-x-9-x-x-9-9-x-x-9-x-9-x-9-x-x-9-9-x-x-7-x-7-x-7-x-x-7-7-|
 E|-7-x-7-x-7-x-x-7-7-x-x-7-x-7-x-7-x-x-7-7-x-x-5-x-5-x-5-x-x-5-5-|

 E|---------------------------------------------------------------|
 F|---------------------------------------------------------------|
 G|---------------------------------------------------------------|
 D|x-x-9-x-9-x-9-x-x-9-9------------------------------------------|
 A|x-x-9-x-9-x-9-x-x-9-9------------------------------------------|
 E|x-x-7-x-7-x-7-x-x-7-7------------------------------------------|

-PRE-CHORUS-
 E|---------------------------------------------------------------|
 F|---------------------------------------------------------------|
 G|-----6---------8---------6---------8---------6---------8-------|
 D|---------------------------------------------------------------|
 A|---7---7-----9---9-----7---7-----9---9-----7---7-----9---9-----|
 E|-5---------7---------5---------7---------5---------7-----------|

 E|------------------2--------------------------------------------|
 F|---------------------------------------------------------------|
 G|---------3-3h4-3-----------------------------------------------|
 D|-----4---------------------------------------------------------|
 A|---4-----------------------------------------------------------|
 E|-2-------------------------------------------------------------|

-CHORUS-
 E|---------------------------------------------------------------|
 F|---------------------------------------------------------------|
 G|---------------------------------------------------------------|
 D|9-99999-99-9^---9-99999-99-9^---9-99999-99-9^-9-999999---------|
 A|9-99999-99-9^---9-99999-99-9^---9-99999-99-9^-9-999999---------|
 E|7-77777-77-7^---7-77777-77-7^---7-77777-77-7^-7-777777---------|

-VERSE 2- --> Is played the same way like Verse 1 but in heavy
              distortion <--

-PRE-CHORUS-

-CHORUS-

-HEAVY PART- Is playd with the same Power-Chords like in Chorus. You can figure out 
the rythm to play, when you hear the song.
Tap to rate this tab
 
# A B C D E F G H I J K L M N O P Q R S T U V W X Y Z