Song name
# A B C D E F G H I J K L M N O P Q R S T U V W X Y Z

Limp Bizkit - Eat You Alive tab

This is my first tab so go a little easy on me...
Drop C


----------------------------------------------------------------|
----------------------------------------------------------------|
--------------0-------0----------------0-----0------------------|
--------------0-------0----------------0-----0------------------|
-2-4---4----4-----2-------2-4---4----4----2---------------------|
-2-4---4----4-----2-------2-4---4----4----2---------------------|


-------------------------------------------------------|
-------------------------------------------------------|
--------------0-------0--------------------------------|
--------------0-------0--------------------------------|
-2-4---4----4-----2-------2-4---4----4-----4---4-------|
-2-4---4----4-----2-------2-4---4----4-----4---4-------|


------------------------------------------------------|
------------------------------------------------------|
--------------0-------0-------------------------------|
--------------0-------0-------------------------------|
-2-4---4----4-----2-----------------------------------|
-2-4---4----4-----2-----------------------------------|


-----------------------------------------------------|
-----------------------------------------------------|
-----------------------------------------------------|
-----------------------------------------------------|
-----------------------------------------------------|
-2-4---4----4--5----2-----4------2-4---4-----4-------|

Pm...............................................
Tap to rate this tab
 
# A B C D E F G H I J K L M N O P Q R S T U V W X Y Z