Limp Bizkit - Killer tab

Limp Bizkit - Killer(demo). SOLO PART!
http://www.youtube.com/watch?v=T80_6CiSr1Y

Tuning:Wes Borland Standard(C# F# B E G# C#)\one and a half step down.


Solo-Distortion(Repeat as necessary).


C#|-------------------------------15-----17--------------------------------------------|
G#|------15------17---18--17----------------------15------17---18---17------15---------|
 E|14-14---14-14---14---14--14-14---14-14---14-14----14-14---14---14--14-14---14-14-17-|
 B|------------------------------------------------------------------------------------|
F#|------------------------------------------------------------------------------------|
C#|------------------------------------------------------------------------------------|


and then


C#|-------------------------------------------------------|
G#|-------------------------------------------------------|
 E|-------------------------------------------------------|
 B|--------------------5----7-----------------------------|
F#|----5----7--8--7---------------5-----7--8--7----5------|
C#|5-5--5-5--5--5--5-5--5-5---5-5---5-5--5--5--5-5---5-5-8|
Tap to rate this tab
 
# A B C D E F G H I J K L M N O P Q R S T U V W X Y Z