Song name
# A B C D E F G H I J K L M N O P Q R S T U V W X Y Z

Limp Bizkit - Im Broke tab

Limp Bizkit-Significant Other
SONG: I'm Broke

Intro/Verse
"i ain't no joke..."
C||--4-4--44-4-4--||
G||--4-4--44-4-4--||
D||--2-2--22-2-2--||
A||---------------||

Chorus
"Maybe i'm broke..."
a||--------------||
F||--10----12----||
C||-----7-----5--||

Riff A
"you said you'd pay me back..."
G||---------------||
D||---------------||
A||--12/3--0-0-0--||

Riff B
G||--14/5--2-2--2--|--14/5--2-2-14--||
D||--14/5--2-2--2--|--14/5--2-2-14--||
A||--12/3--0-0--0--|--12/3--0-0-12--||
Tap to rate this tab
# A B C D E F G H I J K L M N O P Q R S T U V W X Y Z