Guitaretab - guitar tabs
Song name
# A B C D E F G H I J K L M N O P Q R S T U V W X Y Z

Limp Bizkit - Full Nelson tab

Full Nelson-Limp Bizkit
Chocolate Starfish

Tuning for 4 string:
F# F# B E

*=harmonic

Intro:

e-15----14---14------14------15-15---14---14-----14---------------
b-----------------------------------------------------------------
f-13----12---12--0---12--0---13-13---12---12-0---12--10-----------
f----------------0-------0-------------------0-------10-----------

Riff A: w/ q-tron envelope filter and delay

e-7/-----------15--------14-------7/----------15----------14------
b-----------------------------------------------------------------
f------------0-------0-0------x-x-----------0--------0-0------x-x-
f-----------------------------------------------------------------

Verses: Riff A
[ Tab from: http://www.guitaretab.com/l/limp-bizkit/27315.html ]
Chorus: Fig 1.
         * * * * *
e-----------------------------------------------------------------
b-----------------------------------------------------------------
f-0--0---5-5-5-3-4---------------3-5----0--0-5---3----3-0--6------
f-0--0---------------------------3-5----0--0-5---3----3-0--6------

Interlude: Riff B

e------12-14------12--14-12-----12------12-14-----12--14-12-------
b-----------------------------------------------------------------
f---0------------------------10-------0---------------------------
f-0----------15---------------------0---------15-----------10-0-10

Riff C: ...how pathetic are people...

e-----------------------------------------------------------------
b-----------------------------------------------------------------
f-----------------------------------------------------------------
f-14-0---0-12--0---14-0---0-12--0---14-0---0-12--0---14-0--0-14-0-

Riff D: ...down, down, down, burn this motherfucker down...

e-----------------------------------------------------------------
b-----------------------------------------------------------------
f-14-0--0-12-0--14-0--0-12-0--14-0--0-12-0--14-0--0-14-0---0------
f-14-0--0-12-0--14-0--0-12-0--14-0--0-12-0--14-0--0-14-0---0------

thatís all

trevor jones
timmy91199@yahoo.ca
Related for Full Nelson tab