Guitaretab - guitar tabs
Song name
# A B C D E F G H I J K L M N O P Q R S T U V W X Y Z

Limp Bizkit - Nobody Loves Me tab

NOBODY LOVES ME - Limp Bizkit
CGil1403@aol.com

* Harmonic
/ Slide
^ bend to stated note
(#) Ghost Note
(/) Bend Amount

Intro
C#|---------------------------------------------|
G#|---------------------------------------------|
B |---------------------------------------------|
E |---------------------------------------------|
F#|-6-5-5----6-5-5----2---6-5-5----6-5-5----2-2-|
C#|-4-3-3--0-4-3-3--0-0---4-3-3--0-4-3-3--0-0-0-|

Chorus
C#|--------------------------------|
G#|--------------------------------|
B |-9-9-9^(1/2)-9-99^(1/2)-9-9-10-|
E |--------------------------------|
F#|-7-7-7^(1/2)-7-7-7^(1/2)-7-7-8--|
C#|--------------------------------|

Verse 1
C#|--------------------------------------------------------------------|
G#|--------------------------------------------------------------------|
B |-----------------------------------------------------------10^(1/2)-|
E |--------------------------------------------------------------------|
F#|-----------------------------------------------------------8^(1/2)--|
C#|-0-4-3-0-6-0-0-4---3-0-3-0-6---0--4--3--0-6-0-0-4---3--4-0----------|
PM............................................................
[ Tab from: http://www.guitaretab.com/l/limp-bizkit/27319.html ]
Verse 2
C#|-------------------------------------------------------------|
G#|-------------------------------------------------------------|
B |-------------------------------------------------------------|
E |-----------------------------------------------------------3-|
F#|-----------------------------------------------------------3-|
C#|-0-5-3-1-0-0-0-0---5-3-1-0-0-0-0---0-5-3-1-0-0-0-0--5-3-1--1-|
PM...........................................................

Bridge 1
C#|---------------------------|
G#|---------------------------|
B |---------------9-9-9-9-9-9-|
E |-x-x-x-x-x-x-x-------------|
F#|-x-x-x-x-x-x-x-7-7-7-7-7-7-|
C#|---------------------------|

Bridge 2
C#|-----------------------------|
G#|-----------------------------|
B |-----------------------------|
E |-----------------------------|
F#|---------------2-2-2-3-3-3-0-|
C#|-0-0-0-0-0-0-0-0-0-0-1-1-1-0-|
PM................

Bridge 3
C#|---------------------------------|
G#|---------------------------------|
B |---------------------------------|
E |---------------------------------|
F#|-2-2---------2-2-------2-2---3-3-|
C#|-0-0-0-0-0-0-0-0-0-0-0-0-0-0-1-1-|
        PM......    PM....    PM

Bridge 4
C#|---------------------------------------------------------------------|
G#|---------------------------------------------------------------------|
B |---------2*---------2*----------------2*---------2*---------2*-------|
E |---------------------------------------------------------------------|
F#|-2-2-2-2----2-2-2-2----2-2-2--2-2-2-2----2-2-2-2----2-2-2-2----3-3-3-|
C#|-0-0-0-0----0-0-0-0----0-0----0-0-0-0----0-0-0-0----0-0-0-0----1-1-1-|
Related for Nobody Loves Me tab