Song name
# A B C D E F G H I J K L M N O P Q R S T U V W X Y Z

Limp Bizkit - Clunk tab

Clunk
Three Dollar Bill Y'all

Intro
C#-------------------------------------------------------------|
G#-------------------------------------------------------------|
E--------------------------------------------------------9-----|
B--------------------------------------------------------7-----|
F#----2-------3---5--4---3----2-----3---5--3----------5--------|
C#----0-------1---3--2---1----0-----1---3--1-------------------|

Verse
C#-------------------------------------------------------------|
G#-------------------------------------------------------------|
E--------------------------------------------------------------|
B--------------------------------------------------------------|
F#----2---3---0---2---3----2--3--0--2--3-----------------------|
C#----2---3---0---2---3----2--3--0--2--3---0----0---0--0--0--0-|
P.M.                                       - - - - - - - - - -

Chorus
C#-------------------------------------------------------------|
G#-------------------------------------------------------------|
E-----9--8b----------------------------------------------------|
B--------------------------------------------------------------|
F#----7--6b----------------------------------------------------|
C#-------------------0--2--3--0--2--3--0--0--2--3--0--3--2--0--|

Chorus 2
C#-------------------------------------------------------------|
G#-------------------------------------------------------------|
E-----9--8-----------------------------------------------------|
B--------------------------------------------------------------|
F#----7--6-----------1------3----3-----2----1---------3---2----|
C#-------------------1------3----3-----2----1----0----3---2----|

Bridge Vibrato effect
C#----5--7--0--8--7--0--10--0--8--0--7--8--7--5--7--5--7--0--8-|
G#----7--5--0--6--5--0---8--0--6--0--5--6--5--3--5--3--5--0--6-|
E--------------------------------------------------------------|
B--------------------------------------------------------------|
F#-------------------------------------------------------------|
C#-------------------------------------------------------------|

C#---7--0--10--0--8--0--7--8--7--5--7--------------------------|
G#---5--0---8--0--6--0--5--6--5--3--5--------------------------|
E--------------------------------------------------------------|
B--------------------------------------------------------------|
F#-------------------------------------------------------------|
C#-------------------------------------------------------------|

Breakdown
C#-------------------------------------------------------------|
G#-------------------------------------------------------------|
E--------------------------------------------------------------|
B--------------------------------------------------------------|
F#-------------------------------------------------------------|
C#-------1---0---0---0---1p0---1---0---0---0---1p0-------------|


Tabbed by DreadLord-IoN
Tap to rate this tab
# A B C D E F G H I J K L M N O P Q R S T U V W X Y Z