Song name
# A B C D E F G H I J K L M N O P Q R S T U V W X Y Z

Limp Bizkit - Livin It Up tab

Limp Bizkit "Livin' it Up"
From album "Chocolate Starfish and The Hot Dog Flavored Water" 2000
Words & Music by: Limp Bizkit

Tuning: C# G# B E F# C#

Intro & Verse [Clean, with Delay and Reverb]
||----------------------------------------------------||
||---------14--17-14-17-14-------14--17-14-17-15~~~~--||
||*----11--------------------11----------------------*||
||*--------------------------------------------------*||  x14
||----------------------------------------------------||
||----------------------------------------------------||

Chorus [Distortion]                                          \
||----------------------------------------------------||      \
||----------------------------------------------------||       \
||*--------------------------------------------------*||        \
||*-----------------4-4---0--2--0--------------------*||  x7     |
||------------------4-4---0--2--0---------------------||         |
||------------------4-4---0--2--0---------------------||         |
                                                                 |  x2
||----------------------------------------------------||         |
||----------------------------------------------------||         |
||*--------------------------------------------------*||         |
||*-----------------4-4---5--5-5---------------------*||  x1    /
||------------------4-4---5--5-5---------------------*||       /
||------------------4-4---5--5-5----------------------||      /
                                                             /
Verse [Clean]
||----------------------------------------------------||
||---------14--17-14-17-14-------14--17-14-17-15~~~~--||
||*----11--------------------11----------------------*||
||*--------------------------------------------------*||  x8
||----------------------------------------------------||
||----------------------------------------------------||

Chorus [Distortion]                                          \
||----------------------------------------------------||      \
||----------------------------------------------------||       \
||*--------------------------------------------------*||        \
||*-----------------4-4---0--2--0--------------------*||  x7     |
||------------------4-4---0--2--0---------------------||         |
||------------------4-4---0--2--0---------------------||         |
                                                                 |  x2
||----------------------------------------------------||         |
||----------------------------------------------------||         |
||*--------------------------------------------------*||         |
||*-----------------4-4---5--5-5---------------------*||  x1    /
||------------------4-4---5--5-5---------------------*||       /
||------------------4-4---5--5-5----------------------||      /
                                                             /
Bridge I [Distortion]
||----------------------------------------------------||
||----------------------------------------------------||
||*--------------------------------------------------*||
||*--11-11-11-11-11-11-11-9--9--9--9--9--7--9--------*||  x4
||---9--9--9--9--9--9--9--7--7--7--7--7--5--7---------||
||----------------------------------------------------||

Interlude I [Distortion]
         P.M.-------------|
||----------------------------------------------------||
||----------------------------------------------------||
||*--------------------------------------------------*||
||*------2-------2---2---2---------------------------*||  x12
||-------2-------2---2---2----------------------------||
||-------2-------2---2---2----------------------------||

Interlude II [Distortion]
||----------------------------------------------------||
||----------------------------------------------------||
||*--------------------------------------------------*||
||*------2-------2---2---2---------------------------*||  x4
||-------2-------2---2---2----------------------------||
||-------2-------2---2---2----------------------------||

Bridge II [Distortion]
||----------------------------------------------------||
||----------------------------------------------------||
||*--------------------------------------------------*||
||*-2----4------x-x-x-x----2--4--2-2-4---------------*||  x8
||--2----4------x-x-x-x----2--4--2-2-4----------------||
||--2----4------x-x-x-x----2--4--2-2-4----------------||

Bridge I [Distortion]
||----------------------------------------------------||
||----------------------------------------------------||
||*--------------------------------------------------*||
||*--11-11-11-11-11-11-11-9--9--9--9--9--7--9--------*||  x4
||---9--9--9--9--9--9--9--7--7--7--7--7--5--7---------||
||----------------------------------------------------||

Chorus [Distortion]                                          \
||----------------------------------------------------||      \
||----------------------------------------------------||       \
||*--------------------------------------------------*||        \
||*-----------------4-4---0--2--0--------------------*||  x7     |
||------------------4-4---0--2--0---------------------||         |
||------------------4-4---0--2--0---------------------||         |
                                                                 |  x2
||----------------------------------------------------||         |
||----------------------------------------------------||         |
||*--------------------------------------------------*||         |
||*-----------------4-4---5--5-5---------------------*||  x1    /
||------------------4-4---5--5-5---------------------*||       /
||------------------4-4---5--5-5----------------------||      /
                                                             /



Tap to rate this tab
 
# A B C D E F G H I J K L M N O P Q R S T U V W X Y Z