Song name
# A B C D E F G H I J K L M N O P Q R S T U V W X Y Z

Limp Bizkit - Shotgun tab

Shotgun
Limp Bizkit
Gold Cobra (2011)

Tuning: Drop D

164 Bpm


Intro


e|-----------------|-----------------|-----------------|-----------------|
H|-----------------|-----------------|-----------------|-----------------|
G|-----------------|-----------------|-----------------|-----------------|
D|-3-3-3-3---3-3-3-|---3-3---5b----r-|-3-3-3-3---3-3-3-|---3-3---5b----r-|
A|-3-3-3-3---3-3-3-|---3-3---5b----r-|-3-3-3-3---3-3-3-|---3-3---5b----r-|
D|-3-3-3-3---3-3-3-|---3-3---5b----r-|-3-3-3-3---3-3-3-|---3-3---5b----r-|


e|-----------------|-----------------|-----------------|-----------------|
H|-----------------|-----------------|-----------------|-----------------|
G|-----------------|-----------------|-----------------|-----------------|
D|-----------------|-----------------|-----------------|-----------------|
A|-----------------|-----------------|-----------------|---------5b----r-|
D|-0-0-0-0-0-0-0-0-|-0-0-0-0-0-0-0-0-|-0-0-0-0-0-0-0-0-|-0-0-0-0---------|2x



VERSE PART 1								


e|-----------------|-----------------|-----------------|-----------------|
H|-----------------|-----------------|-----------------|-----------------|
G|-----------------|-----------------|-----------------|-----------------|
D|-3-3-3-3---3-3-3-|---3-3---5b----r-|-3-3-3-3---3-3-3-|---3-3---5b----r-|
A|-3-3-3-3---3-3-3-|---3-3---5b----r-|-3-3-3-3---3-3-3-|---3-3---5b----r-|
D|-3-3-3-3---3-3-3-|---3-3---5b----r-|-3-3-3-3---3-3-3-|---3-3---5b----r-|


e|-----------------|-----------------|-----------------|-----------------|
H|-----------------|-----------------|-----------------|-----------------|
G|-----------------|-----------------|-----------------|-----------------|
D|-----------------|-----------------|-----------------|-----------------|
A|-----------------|-----------------|-----------------|---------5b----r-|
D|-0-0-0-0-0-0-0-0-|-0-0-0-0-0-0-0-0-|-0-0-0-0-0-0-0-0-|-0-0-0-0---------|2x



VERSE PART 2


e|-----------------|-----------------|-----------------|-----------------|
H|-----------15----|-----------18----|-----------13----|-------11--------|
G|-------14----14--|-------17----17--|-------12----12--|-----10--10--10--|
D|---12----------12|---15----------15|---10----------10|---8-------8---8-|
A|-----------------|-----------------|-----------------|-----------------|
D|-----------------|-----------------|-----------------|-----------------| 7x


e|-----------------|-----------------|-----------------|-----------------|
H|-----------15----|-----------18----|-----------------|-----------------|
G|-------14----14--|-------17----17--|-----------------|-----------------|
D|---12----------12|---15----------15|-----------------|-----------------|
A|-----------------|-----------------|-----------------|-----------------|
D|-----------------|-----------------|-----------------|-----------------|
  


CHORUS


e|-----------------|-----------------|-----------------|-----------------|
H|-----------------|-----------------|-----------------|-----------------|
G|-----------------|-----------------|-----------------|-----5---5b--5---|
D|-12\-0-----0-0---|---0-0-----0-0---|---0-3---3---3-3-|---3-5---3b--3---|
A|-12\-0-----0-0---|---0-0-----0-0---|---0-3---3---3-3-|---3-3---3b--3---|
D|-12\-0-----0-0---|---0-0-----0-0---|---0-3---3---3-3-|---3-------------|4x



VERSE 2 PART 1


e|-----------------|-----------------|-----------------|-----------------|
H|-----------------|-----------------|-----------------|-----------------|
G|-----------------|-----------------|-----------------|-----------------|
D|-3-3-3-3---3-3-3-|---3-3---5b----r-|-3-3-3-3---3-3-3-|---3-3---5b----r-|
A|-3-3-3-3---3-3-3-|---3-3---5b----r-|-3-3-3-3---3-3-3-|---3-3---5b----r-|
D|-3-3-3-3---3-3-3-|---3-3---5b----r-|-3-3-3-3---3-3-3-|---3-3---5b----r-|


e|-----------------|-----------------|-----------------|-----------------|
H|-----------------|-----------------|-----------------|-----------------|
G|-----------------|-----------------|-----------------|-----------------|
D|-----------------|-----------------|-----------------|-----------------|
A|-----------------|-----------------|-----------------|---------5b----r-|
D|-0-0-0-0-0-0-0-0-|-0-0-0-0-0-0-0-0-|-0-0-0-0-0-0-0-0-|-0-0-0-0---------|2x



VERSE 2 PART 2


e|-----------------|-----------------|-----------------|-----------------|
H|-----------15----|-----------18----|-----------13----|-------11--------|
G|-------14----14--|-------17----17--|-------12----12--|-----10--10--10--|
D|---12----------12|---15----------15|---10----------10|---8-------8---8-|
A|-----------------|-----------------|-----------------|-----------------|
D|-----------------|-----------------|-----------------|-----------------|7x


e|-----------------|-----------------|-----------------|-----------------|
H|-----------15----|-----------18----|-----------------|-----------------|
G|-------14----14--|-------17----17--|-----------------|-----------------|
D|---12----------12|---15----------15|-----------------|-----------------|
A|-----------------|-----------------|-----------------|-----------------|
D|-----------------|-----------------|-----------------|-----------------|



CHORUS 2


e|-----------------|-----------------|-----------------|-----------------|
H|-----------------|-----------------|-----------------|-----------------|
G|-----------------|-----------------|-----------------|-----5---5b--5---|
D|-12\-0-----0-0---|---0-0-----0-0---|---0-3---3---3-3-|---3-5---3b--3---|
A|-12\-0-----0-0---|---0-0-----0-0---|---0-3---3---3-3-|---3-3---3b--3---|
D|-12\-0-----0-0---|---0-0-----0-0---|---0-3---3---3-3-|---3-------------|4x



INTERLUDE


e|-----------------|-----------------|
H|-----------------|-----------------|
G|-7---------------|-----------------|
D|-5---------------|-----------------|
A|-5---------------|-----------------|
D|-----------------|-----------------|



SOLO (Sry I can't tab that^^)


e|-----------------|-----------------|-----------------|-----------------|
H|-----------------|-----------------|-----------------|-----------------|
G|-----------------|-----------------|-----------------|-----------------|
D|-3-3-3-3---3-3-3-|---3-3---5b----r-|-3-3-3-3---3-3-3-|---3-3---5b----r-|
A|-3-3-3-3---3-3-3-|---3-3---5b----r-|-3-3-3-3---3-3-3-|---3-3---5b----r-|
D|-3-3-3-3---3-3-3-|---3-3---5b----r-|-3-3-3-3---3-3-3-|---3-3---5b----r-|


e|-----------------|-----------------|-----------------|-----------------|
H|-----------------|-----------------|-----------------|-----------------|
G|-----------------|-----------------|-----------------|-----------------|
D|-----------------|-----------------|-----------------|-----------------|
A|-----------------|-----------------|-----------------|---------5b----r-|
D|-0-0-0-0-0-0-0-0-|-0-0-0-0-0-0-0-0-|-0-0-0-0-0-0-0-0-|-0-0-0-0---------|2x

Second time hold the bend until the end


Hope you like this shit. might not be perfect but i hope it mostly is.
2011 sven wendt, hamburg, germany
Tap to rate this tab
 
# A B C D E F G H I J K L M N O P Q R S T U V W X Y Z