Song name
# A B C D E F G H I J K L M N O P Q R S T U V W X Y Z

Limp Bizkit - Boiler tab

Band: Limp Bizkit

Song: Boiler

Tabbed by: Crazy Freak

Intro(distortion)
--------------------------------------------|
--------------------------------------------|
--------------------------------------------|
--------------------------------------------|  x2
--------------------------------------11----|
--8------10------0-----8------10------------|


Chorus(Heavy distortion)
--------------------------------------------|
--------------------------------------------|
--------------------------------------------|
----1010-12121212-1010-12121212-0--10-1212--|  x4
----1010-12121212-1010-12121212-0--10-1212--|
-----8-8-12121212-1010-12121212-0---8-1010--|

Verse(clean)
------------------7-6--------------4--------|
-------------5^--------------5^-------------|
--------------------------------------------|
--------------------------------------------|
--------------------------------------------|
--------------------------------------------|

Bridge(heavy sustain)
--------------------------------------------|
--------------------------------------------|
--------------------------------------------|
-----10------------12------------0----------|
-----10------------12------------0----------|
------8------------10------------0----------|


This is mostly it, but you need to listen to the song
to be able to get the parts together right.

Any questions, contact: erling_kylstad@ofs.edu.sg
Tap to rate this tab
# A B C D E F G H I J K L M N O P Q R S T U V W X Y Z