Song name
# A B C D E F G H I J K L M N O P Q R S T U V W X Y Z

Limp Bizkit - Surrender tab

E------------------------------------------------------------|
B------------------------------------------------------------|
G------------------------------------------------------------|
D---0---3----------------2--------2------2--------2- --------|
A---0-------7--5---3--0----3--0-------0-------0------------ -|
E-----------------------------------3-------3----------------|

Play it twice, then Fred starts: "Don't label me a monster..."
Play the same 8 times.

Then play this 4 times, when Fred sings: "But you know theres a part of me..."

E------------------------------------------------------------|
B------------------------------------------------------------|
G------------------------------------------------------------|
D------------------------------------------------------------|
A---0---0-0----0---0-0------------------------------------- -|
E-------------------------3---3-3----2---2-2--0--------------|

Outro where it says 'I surrender' really creepy.

E------------------------------------------------------------|
B------------------------------------------------------------|
G--2/3/2--0--0---2/3/2--0--0---2/5(move it slowly down to  5)|
D------------------------------------------------------------|
A------------------------------------------------------------|
E------------------------------------------------------------|

Tabbed my Beth
helped by Balázs Szegedi from his tabs (I just changed his to how i play it!)

Hope it helped :) Happy playing!!
Tap to rate this tab
 
# A B C D E F G H I J K L M N O P Q R S T U V W X Y Z